PrimaNota.ru - самый крупный в мире бесплатный архив песенных текстов, аккордов, табулатур и нот


Norma Jean - Pretendeavor In Reference To A Sinking Ship - таба, бас-таба, видео

Регистрация Запомнить меня
Войти через:  Facebook Google Twitter Vk Yandex Mail.ru

Norma Jean - Pretendeavor In Reference To A Sinking Ship - таба, бас-таба, видео

Печатать
Просмотров: 103
Pretendeavor: In Reference To A Sinking Ship
Norma Jean
O' God, The Aftermath

Tuning: Low to High (Db Ab Db Gb Bb B)

Intro
B------------------------------------------------------------|
Bb-----------------------------------------------------------|
Gb-----------------------------------------------------------|
Db----2p0--------------------------2p0-----------------------|      4x
Ab-------2p0--------------------------2p0--------------------|
Db-2p0------0-3p0-2p0-0-2p0-3p0-2p0------0-3p0-2p0-0-2p0-3p0-|

Chorus
B---------------------------|
Bb--------------------------|
Gb--------------------------|
Db--------------------------|
Ab--------------------------|
Db-11–-slide--7--slide--0---|     4x

B---------------------|
Bb--------------------|
Gb--------------------|
Db-8----5-----0-------|
Ab-8----5-----0-------|
Db–8----5-----0-------|

Pre-Verse
B-----------------|---3---3--------3---3----3---------3---3--------|
Bb----------------|---3---3--------3---3----3---------3---3--------|
Gb----------------|------------------------------------------------|
Db----------------|------------------------------------------------|
Ab-0--0--0-0-0--0-|-1---1---1-1-1----1---1-----1-1-1----1----0-0---|
Db–0--0--0-0-0--0-|-1---1---1-1-1----1---1-----1-1-1----1----0-0---|

B-------------------------------------------------------------------|
Bb------------------------------------------------------------------|
Gb------------------------------------------------------------------|
Db----------------------------------------------2-----2-------------|
Ab------------------------------------------------------------------|
Db-0000000000000000-00000000000000000000000000-----3-----3----------|
              ---------palm mute------------------------------------|
B-------------------------------------------------------------------|
Bb------------------------------------------------------------------|
Gb------------------------------------------------------------------|
Db----2p0--------------------------2p0------------------------------|      2x
Ab-------2p0--------------------------2p0---------------------------|
Db-2p0------0-3p0-2p0-0-2p0-3p0-2p0------0-3p0-2p0-0-2p0-3p0--------|

B-------------------|
Bb------------------|
Gb------------------|
Db------------------|
Ab-8-7-5-7-5-0---0--|
Db–8-7-5-7-5-0---0–-|

B–-4-4-4----4---4----4----4----4----4----4----4444----|
Bb-4-4-4----4---4----4----4----4----4----4----4444----|
Gb----------------------------------------------------|
Db----------------------------------------------------|
Ab---------0-000-0000-0000-0000-0000-0000-0000--------|
Db---------0-000-0000-0000-0000-0000-0000-0000--------|


B—--4/14---------11-11-11--|
Bb–-4/14---------11-11-11--|
Gb-------------------------|
Db--------7x---------------|
Ab-------------------------|
Db-0-----------0-----------|

B—------------------|
Bb–-----------------|
Gb------------------|
Db-2------2---------|
Ab------------------|
Db----3-------3-----|

B—--4/14---------11-11-11--|
Bb–-4/14---------11-11-11--|
Gb-------------------------|
Db--------7x---------------|
Ab-------------------------|
Db-0-----------0-----------|

B—--4-4-4---------|
Bb–-4-4-4---------|
Gb----------------|
Db---------8x-----|
Ab----------------|
Db-0--------------|

B—----------------------------------------------------------------|
Bb–---------------------------------------------------------------|
Gb----------------------------------------------------------------|
Db------------------------------------------------2-------2---- 1-|0x
Ab----------------------------------------------------------------|
Db–3p0-2p0-2p0-0-3p0-2p0-0-2p0-2p0-3p0-2p0-2p0-0------3-------3---|
(Play around with this part, there is a slight variation, but its real hard to notice)

Chorus
B---------------------------|
Bb--------------------------|
Gb--------------------------|
Db--------------------------|
Ab--------------------------|
Db-11–-slide--7--slide--0---|     4x

then switch to

Chorus
B---------------------------|
Bb--------------------------|
Gb--------------------------|
Db--------------------------|
Ab-11---------7---------0---|
Db-11–-slide--7--slide--0---|     2x

then

B----------------------------------------|
Bb---------------------------------------|
Gb---------------------------------------|
Db-8----5-----0--------------------------|        5x
Ab-8----5-----0--------------------------|
Db–8----5-----0--------------------------|
              |-don't play 5th time------|

B---------------|
Bb--------------|
Gb--------------|
Db-0----0-------|
Ab-0----0-------|
Db–0----0-------|

B—------------------|
Bb–-----------------|
Gb------------------|
Db-2------2---------|
Ab------------------|
Db----3-------3-----|

This next part is actually bass (I think), but you can play along if you want

B—----------------------------------------|
Bb–---------------------------------------|
Gb----------------------------------------|
Db-2------2-----------2---------2---------|
Ab----------------------------------------|
Db----3-------3-----—------3--------3-0---|
Добавлено: 18.05.2012
Другие материалы по этой песне:

Страница создана 10.03.2012
http://primanota.ru/norma-jean/pretendeavor-in-reference-to-a-sinking-ship-chords.htm
Привет, Гость.
Предлагаем пройти революционный курс по гитаре.
Подарок от PrimaNota.Ru, забирай!