PrimaNota.ru - самый крупный в мире бесплатный архив песенных текстов, аккордов, табулатур и нот


Norma Jean - Falling From The Sky Day Seven - текст песни, таба, видео

Регистрация Запомнить меня
Войти через:  Facebook Google Twitter Vk Yandex Mail.ru

Norma Jean - Falling From The Sky Day Seven - текст песни, таба, видео

Печатать
Просмотров: 148
----------------------------------------------------
    Falling From The Sky: Day Seven - Norma Jean
----------------------------------------------------
Tabbed by: Kristyn Lee
Email: spot_the_village_loony_836@hotmail.com

Tuning: Half Step Down

Lead riff
eb|-------------------------------14-12----12--------|
Bb|------15----15-----15-14----14-------15----15-----|
Gb|---16----16-----16-------14-----------------------|
Db|--------------------------------------------------|
Ab|--------------------------------------------------|
Db|--------------------------------------------------|


eb|-------------------------------19-15----15--------|
Bb|------15----15-----15-14----14-------19-----------|
Gb|---16----16-----16-------14-----------------------|
Db|--------------------------------------------------|
Ab|--------------------------------------------------|
Db|--------------------------------------------------|


eb|-------------------------------14-12----12-----------------|
Bb|------15----15-----15-14----14-------15----15-------12~----|
Gb|---16----16-----16-------14--------------------12~---------|
Db|-----------------------------------------------------------|
Ab|-----------------------------------------------------------|
Db|-----------------------------------------------------------|


eb|-------------------------------------14-12----12--------|
Bb|---------15-------15-----15-14----14-------15----15-----|
Gb|---14h16----14h16-----16-------14-----------------------|
Db|--------------------------------------------------------|
Ab|--------------------------------------------------------|
Db|--------------------------------------------------------|


eb|-------------------------------19-15----15--------|
Bb|------15----15-----15-14----14-------19-----------|
Gb|---16----16-----16-------14-----------------------|
Db|--------------------------------------------------|
Ab|--------------------------------------------------|
Db|--------------------------------------------------|


eb|-------------------------------14-12----12-----------------|
Bb|------15----15-----15-14----14-------15----15-------12~----|
Gb|---16----16-----16-------14--------------------12~---------|
Db|-----------------------------------------------------------|
Ab|-----------------------------------------------------------|
Db|-----------------------------------------------------------|

eb|---19-15----15----------|
Bb|---------19----19~~-----|
Gb|------------------------|
Db|------------------------|
Ab|------------------------|
Db|------------------------|

Intro chords
eb|------------------------------------------|
Bb|---3---0-------------3---------------------|
Gb|---4---2-------------4---------------------|
Db|---4---2--(4p2p0h2)--4--2--(0h2--0h2)-------|
Ab|---2---0-------------2--2------------------|
Db|------------------------2------------------|

Verse
eb|------------------------------------------|
Bb|------------------------------------------|
Gb|------------------------------------------|
Db|-------9---12-----9---12---12p11----------|
Ab|-----9---9------9---9----9----------------|
Db|---9----------9---------------------------|
      . . . . .  . . . . .  . .  .

eb|----------------------------------------|
Bb|----------------------------------------|
Gb|----------------------------------------|
Db|-----------11----------11---11p9--------|
Ab|-----7---7-------7---7------------------|
Db|---7---7-------7---7------7-------------|
      . . . . .   . . . . .  . .  .

eb|------------------------------------------|
Bb|------------------------------------------|
Gb|------------------------------------------|
Db|-------9---12-----9---12---12p11----------|
Ab|-----9---9------9---9----9----------------|
Db|---9----------9---------------------------|
      . . . . .  . . . . .  . .  .

eb|------------------------------------------|
Bb|------------------------------------------|
Gb|------------------------------------------|
Db|-----------5---------5---5p4--------------|
Ab|-----2---2-----2---2----------------------|
Db|---2---2-----2---2-----2------------------|
      . . . . . . . . . . . . .
1:09  play x2
eb|----------------------------------|
Bb|---333333-000000------------------|
Gb|---444444-222222------------------|
Db|---444444-222222-2222225p2222-----|
Ab|---222222-000000-2222225p2222-----|
Db|-----------------2222225p2222-----|

eb|-----------------------------------------|
Bb|-----------------------------------------|
Gb|-----------------------------------------|x2
Db|-----------------------------------------|
Ab|---999-121211-777997-2222225222----------|
Db|---999-121211-777997-2222225222----------|

Repeat intro
Repeat verse

2:13
eb|----------------------------------|
Bb|---333333-000000------------------|
Gb|---444444-222222------------------|
Db|---444444-222222-2222225p2222-----|x2
Ab|---222222-000000-2222225p2222-----|
Db|-----------------2222225p2222-----|

eb|-----------------------------------------|
Bb|-----------------------------------------|
Gb|-----------------------------------------|x2
Db|-----------------------------------------|
Ab|---999-121211-777997-2222225222----------|
Db|---999-121211-777997-2222225222----------|

2:36
eb|----------------------------------------------------|
Bb|----------------------------------------------------|
Gb|----------------------------------------------------|
Db|---9~----------9----------9----------4--------------|
Ab|---9~------7--------7---7------5---5-----5---5------|
Db|---9~----7---7----7---7------5---5-----5---5--------|
          
play this a few times
eb|---------------------------------------------------------|
Bb|---------------------------------------------------------|
Gb|----4~~~\\\-----9^---9-9^p7---6-6^-4--6-6^-2//////9^^----|
Db|---------------------------------------------------------|
Ab|---------------------------------------------------------|
Db|---------------------------------------------------------|
other guitar  plays this heaps of times
eb|--------------------------------------------------|
Bb|--------------------------------------------------|
Gb|----4-24-424-4-24-4244-424-4244-2424--------------|
Db|--------------------------------------------------|
Ab|--------------------------------------------------|
Db|--------------------------------------------------|

eb|---------------------------------------------------|
Bb|------15----15----15---15---14---14---14---14------|
Gb|---16----16----16----16---14---14---14---14--------|x4
Db|---------------------------------------------------|
Ab|---------------------------------------------------|
Db|---------------------------------------------------|

play intro riff again

4:21
eb|----------------------------------------------------------------|
Bb|----------------------------------------------------------------|
Gb|----------------------------------------------------------------|
Db|----------------------------------------------------------------|
Ab|---9-9-xxxx-9-9-7h9-9-7h9-9-xxxx-9-9-7h9-9-7-7-xxxxxx-7777-7----|
Db|---9-9-xxxx-9-9-7h9-9-7h9-9-xxxx-9-9-7h9-9-7-7-xxxxxx-7777-7----|


eb|--------------------------|
Bb|--------------------------|
Gb|--------------------------|
Db|--------------------------|
Ab|---5-5-xxxxxx-5-5-4h5-5---|
Db|---5-5-xxxxxx-5-5-4h5-5---|

For the ending just mess around with that riff they play during the verses

************************************

| .   palm mute
| /   slide up
| \   slide down
| h   hammer-on
| p   pull-off
| ~   vibrato
| +   harmonic
| x   Mute note
| b   Bend
| pb  Pre-bend
| br  Bend release
| pbr Pre-bend release
| brb Bend release bend

************************************
Добавлено: 03.06.2013
Другие материалы по этой песне:
  • Аккорды и текст

Страница создана 03.06.2013
http://primanota.ru/norma-jean/falling-from-the-sky-day-seven-chords.htm
Привет, Гость.
Предлагаем пройти революционный курс по гитаре.
Подарок от PrimaNota.Ru, забирай!