PrimaNota.ru - самый крупный в мире бесплатный архив песенных текстов, аккордов, табулатур и нот


Nofx - Fermented And Flailing - таба, бас-таба, видео

Регистрация Запомнить меня
Войти через:  Facebook Google Twitter Vk Yandex Mail.ru

Nofx - Fermented And Flailing - таба, бас-таба, видео

Печатать
Просмотров: 173
Уроки эстрадного вокала в Санкт-Петербурге
Fermented and Flailing
Nofx
Cokie the Clown EP

5/15/10
Kyle Dixon

A is Left Guitar, B is Right Guitar
Intro A @=8x #=12x *=16x %=pick slide
E|---------------------------------|
B|-*--*--*--#-%-*-----*--@---------|
G|-2--7--9--2-%-2--*--7--9-777-666-|
D|-2--7--9--2-%-2--4--7--9-777-666-|
A|-0--5--7--0-%-0--4--5--7-555-444-|
E|-----------------2---------------|

Intro B *=4x @=8x #=16x
E|------------------------------|
B|-*-*-*-*-#--*-*-*-*-@---------|
G|-9-7-6-4-2--9-7-6-4-4-777-666-|
D|----------------------777-666-|
A|-7-5-4-2-0--7-5-4-2-2-555-444-|
E|------------------------------|
   \---3x---/ 

Verse A #=8x @=12x *=16x 
E|----------------------------------------|
B|-*--#---------*--*--*--#---------*--@-%-|
G|-2--7-777-777-9--2--2--7-777-777-9--9-%-|
D|-2--7-777-777-9--2--2--7-777-777-9--9-%-|
A|-0--5-555-555-7--0--0--5-555-555-7--7-%-|
E|----------------------------------------|

Verse B @=4x #=8x &=12x *=16x
E|--------------------------------------------|
B|-*--#---------*-@-@-@-@-*--#---------*--&-%-|
G|-2--7-777-777-9-2-4-6-7-2--7-777-777-9--9-%-|
D|-2--7-777-777-9---------2--7-777-777-9--9-%-|
A|-0--5-555-555-7-0-2-4-5-0--5-555-555-7--7-%-| 
E|--------------------------------------------|

Chorus A&B #=8x *=16x %=pause p=palm mute /=pick slide
E|-----------------------------------------------|
B|-*--*--#---------%--*--*--#---------%--*--*----| Play Verse A or B.
G|-7--7--2-pppp-22-%--7--7--2-pppp-22-%--7--9--/-| Verse A doesn't pickslide.
D|-7--7--2-2222-22-%--7--7--2-2222-22-%--7--9--/-| Then Play Chorus A&B.
A|-5--5--0-0000-00-%--5--5--0-0000-00-%--5--7--/-| 
E|-----------------------------------------------|
         \----2x----/       \----2x----/

Outro A #=8x *=16x
E|-------------|
B|*--*--*--#---|
G|2--7--9--2-2-|
D|2--7--9--2-2-|
A|0--5--7--0-0-|
E|-------------|

Outro B *=4x @=8x #=16x
E|------------------------|
B|-*-*-*-*-#--*-*-*-*-@---|
G|-9-7-6-4-2--9-7-6-4-2-2-|
D|------------------------|
A|-7-5-4-2-0--7-5-4-2-0-0-|
E|------------------------|

Done
Добавлено: 09.03.2012
Другие материалы по этой песне:
  • Аккорды и текст

Страница создана 09.03.2012
http://primanota.ru/nofx/fermented-and-flailing-chords.htm
Привет, Гость.
Предлагаем пройти революционный курс по гитаре.
Подарок от PrimaNota.Ru, забирай!