PrimaNota.ru - самый крупный в мире бесплатный архив песенных текстов, аккордов, табулатур и нот


Nofx - Fungus - таба, бас-таба, видео

Регистрация Запомнить меня
Войти через:  Facebook Google Twitter Vk Yandex Mail.ru

Nofx - Fungus - таба, бас-таба, видео

Печатать
Просмотров: 172
NOFX - Fungus
A=Guitar 1   B=Guitar 2
:
# intro #A&B !~=let ring, /=slide!
E--------------|
B--------------|
G--5~~/12-12---|
D--5~~/12-12---|
A--3~~/10-10---|
E--------------|
:
# main #A&B  !*=3x, "=4-5x fast with palm mute!
E----------|----------|---------|---------|--->
B----*-----|----------|---*-----|---------|--->
G--12----"-|----*---"-|--9---"--|---*--"--|--->
D--12--12--|--12--12--|--9--9---|--9--9---|--->
A--10--10--|---9---9--|--7--7---|--5--5---|--->
E----------|----------|---------|---------|--->
:  \ 2x /      \ 2x /    \ 2x /    \ 2x /
# main #A !all chords 6x except last two play!
>--------------------3---|
>--------------------3---|
>--5-----2--7--------4---|
>--5--5--2--7---5----5---|
>--3--2--0--5---5--------|
>---------------3--------|
:
# main #B !all chords 6x except last two play!
>--------------------3---|
>--------------------3---|
>--5-----2--7--------4---|
>--5--5--2--7---5----5---|
>--3--2--0--5------------|
>------------------------|
:
Добавлено: 19.06.2012
Другие материалы по этой песне:
  • Аккорды и текст

Страница создана 31.05.2012
http://primanota.ru/nofx/fungus-chords.htm
Привет, Гость.
Предлагаем пройти революционный курс по гитаре.
Подарок от PrimaNota.Ru, забирай!