PrimaNota.ru - самый крупный в мире бесплатный архив песенных текстов, аккордов, табулатур и нот


Nofx - Forming - аккорды и текст, бас-таба, видео

Регистрация Запомнить меня
Войти через:  Facebook Google Twitter Vk Yandex Mail.ru

Nofx - Forming - аккорды и текст, бас-таба, видео

Печатать
Просмотров: 121
Авторы музыки: Bobby Pyn
Авторы текста: Bobby Pyn
Forming
Nofx
Band- Nofx
Song- Forming (Germs cover)
Tabbed By Jason Y
Email- Rocksforbrains5k@aol.com with any questions

Verse
---------------------------------
---------------------------------
---------------------------------
-9-9-9--7-7-7-7---9-9-9--7-7-7-7-
-9-9-9--7-7-7-7---9-9-9--7-7-7-7-
-7-7-7--5-5-5-5---7-7-7--5-5-5-5-

-------------------------------------------------
-------------------------------------------------
-------------------------------------------------
-9-9-9-9-7-7-7-7-5-5-5-5-5-5-5-5-7-7-7-7-7-7-7-7-
-9-9-9-9-7-7-7-7-5-5-5-5-5-5-5-5-7-7-7-7-7-7-7-7-
-7-7-7-7-5-5-5-5-3-3-3-3-3-3-3-3-5-5-5-5-5-5-5-5-

In the Nofx cover play the first part of the  verse four times
---------------------------------
---------------------------------
---------------------------------
-9-9-9--7-7-7-7---9-9-9--7-7-7-7- X4
-9-9-9--7-7-7-7---9-9-9--7-7-7-7-
-7-7-7--5-5-5-5---7-7-7--5-5-5-5-

Chorus
-------------------
-------------------
-------------------
-9-5-7-9---9-5-7-9-
-9-5-7-9---9-5-7-9-
-7-3-5-7---7-3-5-7-
(listen for strumming)

I think thats pretty much it, good times.


Shibbs
-Jason   
     
Добавлено: 30.10.2013
Другие материалы по этой песне:
  • Аккорды и текст

Страница создана 03.05.2012
http://primanota.ru/nofx/forming-chords.htm
Привет, Гость.
Предлагаем пройти революционный курс по гитаре.
Подарок от PrimaNota.Ru, забирай!