PrimaNota.ru - самый крупный в мире бесплатный архив песенных текстов, аккордов, табулатур и нот


Nofx - Five Feet Under - текст песни, таба, бас-таба, видео

Регистрация Запомнить меня
Войти через:  Facebook Google Twitter Vk Yandex Mail.ru

Nofx - Five Feet Under - текст песни, таба, бас-таба, видео

Печатать
Просмотров: 128
FIVE FEET UNDER by NOFX. Album: S&M Airlines (1989)                       
1/3
Energic song with cool lyrics. Verse is extremely nice to play! Two guitars
are played again - have fun with your friend!
A=lead guitar  B=background guitar  A&B=both guitars
:
# intro #A              *=play 6X    .=pause
E----------------------------------------------------------------------------|
B-----*------------------*-------------------*---*--------*------------------|
G---14-----------------12------------------10--10--12-14-9-------------------|
D---14-----------------12------------------10--10--12-14-9-------------------|
A---12-.---------------10--.----------------8---8--10-12-7--.----------------|
E----------------------------------------------------------------------------|
# intro #B              *=play 6X    p=pull-off
E----------------------------------------------------------------------------|
B------------------------------------------------*--------*------------------|
G----*-------------------*-------------------*-10--12-14-9-------------------|
D---7-------------------5-------------------3--10--12-14-9-------------------|
A---7-5p3p0-5p3p0-5p3p0-5-5p3p0-5p3p0-5p3p0-3---8--10-12-7-5p3p0-5p3p0-5p3p0-|
E---5-------------------3-------------------1--------------------------------|
:
# intro2 #A              *=play 6X    .=pause
E----------------------------------------------------------------------------|
B-----*------------------*-------------------*---*--------*--*--*--*---------|
G---14-----------------12------------------10--10--12-14-9--9--9--9----------|
D---14-----------------12------------------10--10--12-14-9--9--9--9---9-10---|
A---12-.---------------10--.----------------8---8--10-12-7--7--7--7---9-10---|
E---------------------------------------------------------------------7--8---|
# intro2 #B              *=play 6X    p=pull-off
E----------------------------------------------------------------------------|
B------------------------------------------------*--------*--*--*--*---------|
G----*-------------------*-------------------*-10--12-14-9--9--9--9----------|
D---7-------------------5--------3-----3----3--10--12-14-9--9--9--9---9-10---|
A---7-5p3p0-5p3p0-5p3p0-5--5p3p0------------3---8--10-12-7--7--7--7---9-10---|
E---5-------------------3-------------------1-------------------------7--8---|
:
# bridge #B    X2
E-------------------|
B-------------------|
G-------------------|
D---7-7--5-7-7-10---|
A---7-7--5-7-7-10---|
E---5-5--3-5-5--8---|
:
# chorus #A        *=play 12X      (five feet under...)
E--------------------------------------------------------|
B-----*---*--------*--------------*---*--------*---------|
G---12--10--12-14-9----------*--12--10--12-14-9----------|
D---12--10--12-14-9---9-10--7---12--10--12-14-9---9-10---|
A---10---8--10-12-7---9-10--7---10---8--10-12-7---9-10---|
E---------------------7--8--5---------------------7--8---|
# chorus #B        *=play 12X
E--------------------------------------------------------|
B---------*--------*------------------*--------*---------|
G-----*-10--12-14-9----------*----*-10--12-14-9----------|
D----5--10--12-14-9---9-10--7----5--10--12-14-9---9-10---|
A----5---8--10-12-7---9-10--7----5---8--10-12-7---9-10---|
E----3----------------7--8--5----3----------------7--8---|
:
# bridge2 #B      a=note played also with guitarA
E-------------------|
B-------------------|
G----------------a--|
D---7--7-5-2--2-5---|
A---7--7-5-2--2-5---|
E---5--5-3-0--0-3---|
:
>>>>>>>>>>>to next page...
:
FIVE FEET UNDER                                                           
2/3
# verse #A&B  X4    ()=not played last time  *=play 4X  use some 
palm-muting!
E------------------------------------------|
B----*---*---------------------------------|
G---7---7-----------*---*------------------|
D---7---7---3-----10---9--(7--7-5-2--2-5)--|
A---5---5---3-----10---9--(7--7-5-2--2-5)--|
E-----------1------8---7--(5--5-3-0--0-3)--|
:
# end-verse #A        *=play 3X     (Here he lies, may he rest in peace...)
E---------------------------------------------------------------|
B--------------------*-------------------------------*----------|
G----*---*---*---*--9--10----*---*---*---*---*---*--9--10-------|
D---7---3--10---9----------10---9---7---3--10---9-----------7---|
A---7---3--10---9----------10---9---7---3--10---9-----------7---|
E---5---1---8---7-----------8---7---5---1---8---7-----------5---|
# end-verse #B        *=play 3X      \=slide down
E---------------------------------------------------------------|
B----*---------------*---------------*---------------*----------|
G---9--10----*---*--9--10----*---*--9--10----*---*--9--10-------|
D----------10---9----------10---9----------10---9-----------7\--|
A----------10---9----------10---9----------10---9-----------7\--|
E-----------8---7-----------8---7-----------8---7-----------5\--|
:
# bridge3 #A
E-------------------------------------------------------|
B-------------------------------------------------------|
G----------------------------------12-12-12-12-12-12----|
D----------------------------------12-12-12-12-12-12----|
A----------------------------------10-10-10-10-10-10----|
E-------------------------------------------------------|
# bridge3 #B
E-------------------------------------------------------|
B-------------------------------------------------------|
G-------------------------------------------------------|
D---7-7--5-7-7-10--7-7--5-7-7-10--5-5-5-5-5-5-5-5-5-5---|
A---7-7--5-7-7-10--7-7--5-7-7-10--5-5-5-5-5-5-5-5-5-5---|
E---5-5--3-5-5--8--5-5--3-5-5--8--3-3-3-3-3-3-3-3-3-3---|
:
# solo #B   (=bend up    \=slide down   v=vibrato     GuitarA plays chorusA
E-------------------------------------------------------------------------->
B---------------------------(---(--------5-----5--5-7-8-------------------->
G-------------------10-9--7-7---7--------5-----5--5-----5----------7-5-4--->
D-----------10-9--7-----------------5--7---7----------------5-5--5--------->
A---8-----------------------------7---------------------------------------->
E-------8-7---------------------------------------------------------------->
:
E-----------------------(-----(--10-----------12\--|
B---------------(------10--8-12--10-12-10-8v-------|
G-----5--7-5\---7----------------------------------|
D---5----------------------------------------------|
A--------------------------------------------------|
E--------------------------------------------------|
:
# chorus2 #A       *=play 8X (palm-muted)
E------------------------------------------|
B------------------------------------------|
G----*---*---*---*---*---*-------*---------|
D---7---7---5---5---3---3---5-7-2---9-10---|
A---7---7---5---5---3---3---5-7-2---9-10---|
E---5---5---3---3---1---1---3-5-0---7--8---|
# chorus2 #B       *=play 8X (palm-muted)
E------------------------------------------|
B--------------------------------*---------|
G----*---*---*---*---*---*------9----------|    >>>>>to next page...
D---7---7---5---5---3---3---5-7-9---9-10---|
A---7---7---5---5---3---3---5-7-7---9-10---|
E---5---5---3---3---1---1---3-5-----7--8---|
FIVE FEET UNDER                                                           
3/3
:
# chorus2-2 #A       *=play 8X (palm-muted)
E------------------------------------------|
B------------------------------------------|
G----*---*---*---*---*---*-------*---------|
D---7---7---5---5---3---3---5-7-2---9-10---|
A---7---7---5---5---3---3---5-7-2---9-10---|
E---5---5---3---3---1---1---3-5-0---7--8---|
# chorus2-2 #B       *=play 8X (palm-muted)
E------------------------------------------|
B------------*---*---------------*---------|
G----*---*-12--12----*---*------9----------|
D---7---7--12--12---3---3---5-7-9---9-10---|
A---7---7--10--10---3---3---5-7-7---9-10---|
E---5---5-----------1---1---3-5-----7--8---|
:
Play bridge2B
:
# solo2 #A /=slide up v=vibrato h=hammer-on b=bend-up GuitarB play verseAB 
X1
E------------12-----------------------12h15-17b--17b-----------|
B---3--/15------13---------------12h15-----------------15-17bv-|
G------------------14-14v--12h14-------------------------------|
D--------------------------------------------------------------|
A--------------------------------------------------------------|
E--------------------------------------------------------------|
:
Then play verseAB X3 and then end-verseA or end-verseB
:
# outro #A   *=play 30X   \=slide down
E-------------------------------|
B-------------------------------|
G----*--------------------------|
D---7-----------------------\---|
A---7-----------------------\---|
E---5-----------------------\---|
# outro #B   *=play 20X   \=slide down
E-------------------------------|
B-------------------------------|
G----*-----14-14-14-14-14-14\---|
D---7------14-14-14-14-14-14\---|
A---7------12-12-12-12-12-12\---|
E---5---------------------------|
:
Long list again - hope you catched it!
Tabbed by Jussi Heinonen 21.11.1997
     
Добавлено: 30.10.2013
Другие материалы по этой песне:
  • Аккорды и текст

Страница создана 13.03.2012
http://primanota.ru/nofx/five-feet-under-chords.htm
Привет, Гость.
Предлагаем пройти революционный курс по гитаре.
Подарок от PrimaNota.Ru, забирай!