PrimaNota.ru - самый крупный в мире бесплатный архив песенных текстов, аккордов, табулатур и нот


Nine Inch Nails - Eraser (polite) - текст песни, таба, видео

Регистрация Запомнить меня
Войти через:  Facebook Google Twitter Vk Yandex Mail.ru

Nine Inch Nails - Eraser (polite) - текст песни, таба, видео

Печатать
Просмотров: 201
Уроки эстрадного вокала в Санкт-Петербурге
Nine Inch Nails, Eraser(polite), transcribed by Rob Bolt. I declair this
file to be all my own work.

Here is Eraser(polite), as off NIN - Further down the spiral. I'm currently
going through the new "All that could have been" album - I've been tabbing
out frail and wretched. Eraser doesn't have any true guitar, but I found it
sounds fairly cool with some reverb and chorus. I've tabbed the bass
pattern
as well as the main (flute?) melody. I also put in the lyrical melody, as
if
you're anything like me, singing along to a guitar melody is easier than
singing along to another voice (not that you could really call my voice
"singing!")

Eraser (polite)
E--------------------------------
B------6--4------6--4--2--4---
G-----------3--5----------------
D--------------------------------
A--------------------------------
E--------------------------------


E--------------------------------
B------6--4------6--4--2--4---
G-----------3--5----------------
D--------------------------------
A--------------------------------
E--------------------------------


E---------------------------------------
B------6--4-------------6--4--2--4----
G-----------3--5-----------------------
D---------------------------------------
A---------------------------------------
E---------------------------------------

     need you               find you
dream you       taste you

E----------------------------------------------
B-----6--4--2--------6--4--2-----------------
G---------------3--------------3--------------
D----------------------------------------------
A----------------------------------------------
E----------------------------------------------

use you                   fuck you
           scar you                      break you



repeat - but note, the "use you scar you" bit comes in for the intro the2nd
time round.


Bass (synth)

E-----------------------------------------------------------
B----------------------------------------------------------
G-----------------------------------------------------------
D-------------------------6-4------------------------------
A---1--3-4--1-6-8-6--1-------6--8--8--6-4-1--8-6--8-4-    repeat except for
E----------------------------------------------------------- last 4 notes.

need you.....


lyrical melody

E----------------------------------------------
B----------------------------------------------
G----------------------------------------------
D-------------------1-------------------------1
A---1--3--------4-----------1--3-------4-----
E----------------------------------------------
need you    dream you     find you        taste you


E-------------------------------------------------------
B-------------------------------------------------------
G-------------------------------------------------------
D--3---1-----3----1--------3----1---------------------
A--------------------------------------------4----1----
E-------------------------------------------------------
use you       scar you        fuck you         break you


Well, good luck! I hope this is right. Bolt.
     
Добавлено: 28.06.2013
Другие материалы по этой песне:
  • Аккорды и текст

Страница создана 28.06.2013
http://primanota.ru/nine-inch-nails/eraser-polite-chords.htm
Привет, Гость.
Предлагаем пройти революционный курс по гитаре.
Подарок от PrimaNota.Ru, забирай!