PrimaNota.ru - самый крупный в мире бесплатный архив песенных текстов, аккордов, табулатур и нот


Nine Inch Nails - Underneath it All - аккорды и текст, видео

Регистрация Запомнить меня
Войти через:  Facebook Google Twitter Vk Yandex Mail.ru

Nine Inch Nails - Underneath it All - аккорды и текст, видео

Печатать
Просмотров: 116
Underneath it All
Nine Inch Nails
"Underneath it all" by Nine Inch Nails

from album "The fragile" 


tabbed by peter hate machine aka sui generis 
             (my_own_fall@yahoo.com;  somewhat.damaged@zonebox.com)


hahaha. who would have thought that some day you'll be looking at one
of trents most electronic songs made transcripted into guitar tabs!

standard tunning

x - palm mute

intro
....sounds like
|-----------------------------
|------------------9-10-9-10--
|--8---8---8---8--------------
|----7---7---7---7------------    repeat all 4x
|-----------------------------
|-----------------------------

verse 1
|-----------------------------------
|-----------------------------------
|-----------------------------------
|--7-x-x-x-7-x-x-x-7-x-x-x-7-x-x-x--
|--7-x-x-x-7-x-x-x-7-x-x-x-7-x-x-x--
|--5-x-x-x-5-x-x-x-5-x-x-x-5-x-x-x--



verse 2
|------------------------------------
|------------------------------------
|------------------------------------
|--5-5-5-7-5-5-5-5--5-5-5-7-5-5-5-5--
|--5-5-5-7-5-5-5-5--5-5-5-7-5-5-5-5--
|--3-3-3-5-3-3-3-3--3-3-3-5-3-3-3-3--

verse 3  (= verse 1)
|-----------------------------------
|-----------------------------------
|-----------------------------------
|--7-x-x-x-7-x-x-x-7-x-x-x-7-x-x-x--
|--7-x-x-x-7-x-x-x-7-x-x-x-7-x-x-x--
|--5-x-x-x-5-x-x-x-5-x-x-x-5-x-x-x--


:D  this is it.


                 peter aka sui generis

==
     
Добавлено: 23.09.2013
Другие материалы по этой песне:
  • Аккорды и текст

Страница создана 06.05.2012
http://primanota.ru/nine-inch-nails/underneath-it-all-chords.htm
Привет, Гость.
Предлагаем пройти революционный курс по гитаре.
Подарок от PrimaNota.Ru, забирай!