PrimaNota.ru - самый крупный в мире бесплатный архив песенных текстов, аккордов, табулатур и нот


Nine Inch Nails - I do Not Want This - текст песни, таба, видео

Регистрация Запомнить меня
Войти через:  Facebook Google Twitter Vk Yandex Mail.ru

Nine Inch Nails - I do Not Want This - текст песни, таба, видео

Печатать
Просмотров: 107
Авторы музыки: Trent Reznor

Okay, I thought that since on the TDS album tab, it doesn't have a tab for the eighth
track, "I Do Not Want This". I thought that I might as well contribute to this by
submitting my tab here. It is a very easy song, and I tabbed it by ear, so I am 100% 
sure that this is what Trent is playing on this song.

* = Palm mute
b = Bend

Chorus : "Don't you tell me...You don't know just how I feel"

     *  *          * *
e|----------------------|
B|----------------------|
G|------------------3---|
D|-----2-2-----2-2-3----|
A|-2-2-2-2-2-2-2-2-1----|
E|-1-1-0-0-3-3-0-0------|

Play that 8 times.

Solo :

        *  *   *  *   *

e|-----------------|
B|-----------------|
G|-----------------|
D|-2-2-2-2-2-2-----|
A|-2-2-2-2-2-2-5/7-|
E|-0-0-0-0-0-0-----|

There is an alternate part of the solo towards the end of it that goes like this :

e|-----------------|
B|-----------------|
G|-7-7-7-7-7-------|
D|-9-9-9-9-9-------|
A|-----------5/7---|
E|-----------------|

At the very end of the solo, you play this, but you do NOT strum the strings.

e|------|
B|------|
G|-13---|
D|-13---|
A|---11-|
E|------|

And guitar 1 of the end is playing this :

      *   *  *     *  *

e|-------------------|
B|-------------------|
G|-------------------|
D|-------------------|
A|-7/2-2-2-7/2-2-7/2-|
E|-0-0-0-0-0-0-0-0-0-|

Guitar 2 plays this :

e|----------------------|
B|-15-14----------------|
G|-------11~~~b---------|
D|-12-11-------12/14----|
A|-------9~~~b----------|
E|--------------10/12---|

That is it! I hope you found my tab to be correct! Have fun!
Добавлено: 08.11.2013
Другие материалы по этой песне:

Страница создана 16.07.2012
http://primanota.ru/nine-inch-nails/i-do-not-want-this-chords.htm
Привет, Гость.
Предлагаем пройти революционный курс по гитаре.
Подарок от PrimaNota.Ru, забирай!