PrimaNota.ru - самый крупный в мире бесплатный архив песенных текстов, аккордов, табулатур и нот


Nine Inch Nails - Came Back Haunted Live - таба, видео

Регистрация Запомнить меня
Войти через:  Facebook Google Twitter Vk Yandex Mail.ru

Nine Inch Nails - Came Back Haunted Live - таба, видео

Печатать
Просмотров: 65
-----------------------------------------------------------------------------
                             SONG NAME - Band Name
-----------------------------------------------------------------------------Tabbed by:
E-mail:

Tuning:Drop D

I dont play the guitar until the 1st chorus.

CHORUS
'i dont believe it...'
e|-----------------------------|
B|-----------------------------|
G|-----------------------------|
D|5-------/14-------\9---------|
A|5--×16--/14--×16--\9--×32----|
D|5-------/14-------\9---------|


CHORUS


BRIDGE
'im afraid...'
e|----------|
B|----------|
G|----------|
D|----------|×2
A|5~~--2~~--|
D|----------|


CHORUS×2


SOLO INTRO
gutar 1 ONLY
e|-------------|
B|-------------|
G|14-16-14-16--|
D|-------------|×1
A|12-14-12-14--|
D|-------------|


SOLO
The first 2 times:guitar 1 ONLY, then 2 times guitar 1 & 2.
e|----------------------------------------------------------------------|
B|----------------------------------------------------------------------|
G|16-16-16-16-16-16/17---13-13-13-13-13-13/14---7-7-7-7-7-7/9---7-9-7-4-|
D|----------------------------------------------------------------------|×4
A|14-14-14-14-14-14/15---11-11-11-11-11-11/12---5-5-5-5-5-5/7---5-7-5-2-|
D|----------------------------------------------------------------------|


CHORUS×3


OUTRO 'just cant stop...'
guitar 1 ONLY
e|--------------------------------|
B|--------------------------------|
G|--------------------------------|
D|--------------------------------|×1
A|15~14~~----10~11~~--------------|
D|----------------------12~9~~----|

and then, gutar 1 & 2
gutar 1
e|--------------------------------|
B|--------------------------------|
G|--------------------------------|
D|--------------------------------|×2
A|15~14~~----10~11~~--------------|
D|----------------------12~9~~----|

gutar 2
e|---------|
B|---------|
G|---------|
D|9--------|×2
A|9--×64---|
D|9--------|


************************************

| /   slide up
| \   slide down
| h   hammer-on
| p   pull-off
| ~   vibrato
| +   harmonic
| x   Mute note
| b   Bend
| pb  Pre-bend
| br  Bend release
| pbr Pre-bend release
| brb Bend release bend

************************************
Добавлено: 30.09.2013
Другие материалы по этой песне:
  • Аккорды и текст

Страница создана 30.09.2013
http://primanota.ru/nine-inch-nails/came-back-haunted-live-chords.htm
Привет, Гость.
Предлагаем пройти революционный курс по гитаре.
Подарок от PrimaNota.Ru, забирай!