PrimaNota.ru - самый крупный в мире бесплатный архив песенных текстов, аккордов, табулатур и нот


Nine Inch Nails - 4 Ghosts I - таба, бас-таба, видео

Регистрация Запомнить меня
Войти через:  Facebook Google Twitter Vk Yandex Mail.ru

Nine Inch Nails - 4 Ghosts I - таба, бас-таба, видео

Печатать
Просмотров: 114
Авторы музыки: Atticus Ross, Alessandro Cortini, Trent Reznor

-------------------------------------------------------------------------------
                             4 Ghosts I - Nine Inch Nails
-------------------------------------------------------------------------------
Tabbed by: Sean Pierce (sparecactus)
Email: piedude12@yahoo.com

Tuning: Standard

e|----------------------------------------------------------------------------|
B|-4-4-4-4-4-5-5---------------------4-4-4-4-4-5-5----------------------------|
G|-4-4-4-4-4-4-4--2-2-2-2-2-2-2-2-2--4-4-4-4-4-4-4--3-3-3-3-3-3-3-3-3---------|
D|-2-2-2-2-2-2-2--3-3-3-3-3-3-3-3-3--5-5-5-5-5-5-5--4-4-4-4-4-4-4-4-4---------|
A|----------------x-x-x-x-x-x-x-x-x-----------------x-x-x-x-x-x-x-x-x---------|
E|----------------1-1-1-1-1-1-1-1-1-----------------3-3-3-3-2-2-2-2-2---------|
Добавлено: 14.12.2013
Другие материалы по этой песне:
  • Аккорды и текст

Страница создана 14.12.2013
http://primanota.ru/nine-inch-nails/4-ghosts-i-chords.htm
Привет, Гость.
Предлагаем пройти революционный курс по гитаре.
Подарок от PrimaNota.Ru, забирай!