PrimaNota.ru - самый крупный в мире бесплатный архив песенных текстов, аккордов, табулатур и нот


Nine Inch Nails - Year Zero - таба, видео

Регистрация Запомнить меня
Войти через:  Facebook Google Twitter Vk Yandex Mail.ru

Nine Inch Nails - Year Zero - таба, видео

Печатать
Просмотров: 90
NIN-Year Zero
Most songs are in Drop D otherwise noted


Hyperpower!
Intro 
e|-----------------|
b|-----------------|
G|-----------------|
D|-----------------|
A|-22222222252-252-|
D|-----------------|

Main
e|------------------|
b|------------------|
G|------------------|
D|------------------|
A|-222222222--------|
D|----------333333-0|

Outro (Palm-Muted)
e|--------|
b|--------|
G|--------|
D|-44---44|
A|-22---22|
D|-00---00|


-----------------------------------------------------------------------

The Beginning Of The End Tab by Nine Inch Nails, taken from www.Ultimate-Guitar.Com

Gtr I
 
 Verse

e|-----------------|-----------------|
b|-----------------|-----------------|
G|-7-7-7-7-7-7-7-7-|-7-7-7---5-5-5-5-|
D|-----------------|-----------------|
A|-5-5-5-5-5-5-5-5-|-5-5-5---3-3-3-3-|
D|-0-0-0-0-0-0-0-0-|-0-0-0-----------|

 
 Chorus

e|-----------------|-----------------|
b|-----------------|-----------------|
G|-----------------|-----------------|
D|-----------------|-----------------|
A|-1-1-1-1-1-1-1-1-|-1-1-1---1-1-1-1-|
D|-----------------|-----------------|


e|-----------------|-----------------|
b|-----------------|-----------------|
G|-----------------|-----------------|
D|-----------------|-----------------|
A|-----------------|-----------------|
D|-5-5-5-5-5-5-5-5-|-5-5-5---5-5-5-5-|


Gtr II (whole song)

                       1/4
e|-----------------|-----------------|
b|-----------------|-----------------|
G|-7-7-7-7-7-7-7-7-|-7-7b7-7-7-7-7-7-|
D|-----------------|-----------------|
A|-5-5-5-5-5-5-5-5-|-5-5b5-5-5-5-5-5-|
D|-----------------|-----------------|


Gtr III (second chorus)

e|-------------------------|-------------------------|
b|-------------------------|-------------------------|
G|-17-17-17-17-17-17-17-17-|-17-17-17-17-17-17-17-17-|
D|-------------------------|-------------------------|
A|-15-15-15-15-15-15-15-15-|-15-15-15-15-15-15-15-15-|
D|-------------------------|-------------------------|

use down-strokes for every part

-----------------------------------------------------------------------

Survivalism Tab by Nine Inch Nails, taken from www.Ultimate-Guitar.Com (REG AND/OR DROP D)


Bass intro:
     
G|----------------------------------|
D|----------------------------------|
A|-0-0-0-0-0-0-0---0-0-0-0-0-0-0----|
E|----------------------------------|


Verse:
e|----------------------------------|
b|----------------------------------|
G|----------------------------------|
D|----------------------------------|
A|-0-0-0-0-0-0-0---0-0-0-0-0-0-0----|
E|----------------------------------|


Chorus:

 Gtr 1
e|----------------------------------|
b|----------------------------------|
G|-7-7-7-7-7-7-7---5-5-5-5-5-5-5----|
D|-7-7-7-7-7-7-7---5-5-5-5-5-5-5----|
A|-5-5-5-5-5-5-5---3-3-3-3-3-3-3----|
E|----------------------------------|

e|----------------------------------|
b|----------------------------------|
G|-2-2-2-2-2-2-2---2-2-2-2-2-2-2----|
D|-2-2-2-2-2-2-2---2-2-2-2-2-2-2----|
A|-0-0-0-0-0-0-0---0-0-0-0-0-0-0----|
E|----------------------------------|


 Gtr2

   x8      x8
e|------------------|
b|------------------|
G|-12------13-------|
D|------------------|
A|-10------11-------|
E|------------------|



Outro:

   x3 x11     x3 x11     x3 x11    x3 x7  x4
e|---------------------------------------------|
b|---------------------------------------------|
G|-14--12-----11--17-----9--10-----7--6--------|
D|---------------------------------------------|
A|-12--10-----9---15-----7--8------5--4----0---|
E|---------------------------------------------|

-----------------------------------------------------------------------

The Good Soldier (DROP C)

Verse GT. 1:
e|----------------------------------|
b|----------------------------------|
G|----------------------------------|
D|----------------------------------|
A|-3-3-3-3-3-31---3-3-3-3-3-3-3-1---|
C|----------------------------------|

Verse GT. 2:
e|----------------------------------|
b|----------------------------------|
G|----------------------------------|
D|----------------------------------|
A|----------------------------------|
C|0---0-3-4-5h6---------------------|

Chorus (Hard To Hear):
e|----------------------------------|
b|----------------------------------|
G|----------------------------------|
D|----------------------------------|
A|-3---3-6-7-8h9--------------------|
C|----------------------------------|

Outro:
e|---------------------------------------------|
b|---------------------------------------------|
G|---------------------------------------------|
D|----------------------------5-5-5-5----------|
A|--------------5-5-5-5------------------------|
C|5-5-5-5-3---3----------5--5---------3h5h3-3-0|

-----------------------------------------------------------------------
Vessel
Verse
e|----------------------------------|
b|----------------------------------|
G|----------------------------------|
D|----------------------------------|
A|-1(pitch bend to a lower pitch)---|
D|----------------------------------|

Chorus
e|----------------------------------|
b|----------------------------------|
G|----------------------------------|
D|----------------------------------|
A|----------------------------------|
D|---8----3--h--5-------------------|
-----------------------------------------------------------------------
Me I'm Not
Chorus
E|----------------------------------|
B|00-0-0-0-0-2----------------------|
G|---------------44-4-4-4-4-4-3-----|
D|----------------------------------|
A|----------------------------------|
D|----------------------------------|
-----------------------------------------------------------------------
Capital G
Verse (Bass)
G|----------------------|
D|---0----0----0----0h3-|
A|----------------------|
D|0-0--0-0--0-0--0-0----|

Chorus
E|-----------------------------------------------|
B|--------------------7-77-77-77-77-77-77-77-776-|
G|7-77-77-77-77-77-77----------------------------|
D|--------------------5-55-55-55-55-55-55-55-554-|
A|5-55-55-55-55-55-55----------------------------|
D|-----------------------------------------------|

Post-Chorus (Mega-bend all notes)
E|--------------|
B|--------------|
G|--------------|
D|5-5-5-5-5-5-5-|
A|-------------5|
D|--------------|

Interlude
E|-----------------|
B|-----------------|
G|-----------------|
D|-----------------|
A|----35-----------|
D|0------35-35-3---|
-----------------------------------------------------------------------

My Violent Heart
Verse
E|-----------------|
B|-----------------|
G|-----------------|
D|-----------------|
A|0---1------------|
D|-----------------|

No Guitar In Chorus But The Interlude Fits

Interlude (Something Like This. Hard to Figure Out)
E|-----------------|
B|-------3h4-3h4---|
G|----3----------1-|
D|-----------------|
A|1-1--------------|
D|-----------------|

-----------------------------------------------------------------------
The Warning (Drop C)
Main Riff (Guitar
Добавлено: 13.09.2013
Другие материалы по этой песне:
  • Аккорды и текст

Страница создана 13.09.2013
http://primanota.ru/nine-inch-nails/year-zero-chords.htm
Привет, Гость.
Предлагаем пройти революционный курс по гитаре.
Подарок от PrimaNota.Ru, забирай!