PrimaNota.ru - самый крупный в мире бесплатный архив песенных текстов, аккордов, табулатур и нот


Паганини Никколо - Соната в C - аккорды и текст, видео

Регистрация Запомнить меня
Войти через:  Facebook Google Twitter Vk Yandex Mail.ru

Паганини Никколо - Соната в C - аккорды и текст, видео

Печатать
Просмотров: 196
Соната в C
Паганини Никколо
                 затакт
E|-----------3-------0-------|------------------------0---1----|
B|---------------------------|1---------------1---3------------|
G|-------------0---0---0---0-|--0---0---0---0---0---0---0---0--|
D|---------------2-------2---|----2-------2-------2-------2----|
A|-----------3-------3-------|3-------3-------3-------3--------|
E|---------------------------|---------------------------------|
 
E|-----------------1---------------|
B|-3-----------------------3-------|
G|---0---0---0---0---0---0---0---0-|
D|-----0-------0-------0-------0---|
A|-2-------2-------2-------2-------|
E|---------------------------------|

E|-----------------------------0---|
B|-0---------------0---1---3-------|
G|---0---0---0---0---0---0---0---0-|
D|-----0-------0-------0-------0---|
A|---------------------------------|
E|-3-------3-------3-------3-------|

E|-----------------3-------0-------|
B|-1-------------------------------|
G|---0---0---0---0---0---0---0---0-|
D|-----2-------2-------2-------2---|
A|-3-------3-------3-------3-------|
E|---------------------------------|

E|-1-------3-1-0---------------0---|
B|---------------3-1-------3-------|
G|-------------------0---0---0---0-|
D|---3---3-------------2-------0---|
A|-----0-----------3-------2-------|
E|-1-------1-----------------------|

E|-------------0-1-3-------0-------|
B|-1-------1-3---------------------|
G|---0---0-----------0---0---0---0-|
D|-----2---------------2-------2---|
A|-3-------3-------3-------3-------|
E|---------------------------------|

E|-1-------3-1-0---------------0---|
B|---------------3-1-------3-------|
G|-------------------0---0---0---0-|
D|---3---3-------------2-------0---|
A|-----0-----------3-------2-------|
E|-1-------1-----------------------|

E|-----3---0---1---0---------|-----------3---2---0-----------0-|
B|-1-------------------3---1-|---0---3---------------2---3-----|
G|---------------------------|---------------------------------|
D|---2-------0---------------|---------2---0-------------------|
A|-3-----3-------3---2---0---|-----2-----------4---0---2---4---|
E|---------------------------|-3-------------------------------|

                           |триоли|
E|-----2-------5-------7------8--7-|
B|---3---3---7---7---8---8--10--8--|
G|---------------------------------|
D|-0-------0-------0-------0---0---|
A|---------------------------------|
E|---------------------------------|

                         |триоли|
E|-----5-------5-------7------8--7-|
B|---7---7---7---7---8---8--10--8--|
G|---------------------------------|
D|-0-------0-------0-------0---0---|
A|---------------------------------|
E|---------------------------------|

E|-----5-----------3---3---2-3-5-3-|-2-0-3-2-3-0---------0-----|
B|---7---7-----3-------------------|-------------3--3--3---3-1-|
G|---------------------------------|---------------------------|
D|-0-------0-----------------------|-------------0-----0-------|
A|-----------------2---------------|-3-------------------------|
E|---------------------------------|---------------------------|

E|-----------------3---3---2-3-5-3-|-2---0--3-2-3-0---0--------|
B|-1---0---0---3-------------------|----------------3---1-0----|
G|---------------------------------|-------------------------2-|
D|-2-------------------------------|----------------0-----0----|
A|-----------------2---------------|-3-------------------------|
E|---------------------------------|---------------------------|

E|-------3-----3-------------------|
B|-----3-----0---0---1---2---3---4-|
G|---4-----------------------------|
D|-5-----------------------0---1---|
A|---------2-------3---4-----------|
E|---------------------------------|

E|---0---1---2---3----7----------7-|
B|-----------------------10-8-10---|
G|---------------------------------|
D|-2---3---4---5---0-----0---------|
A|---------------------------------|
E|---------------------------------|

E|-------3-----3-------------------|
B|-----3-----0---0---1---2---3---4-|
G|---4-----------------------------|
D|-5-----------------------0---1---|
A|---------2-------3---4-----------|
E|---------------------------------|

E|---0---1---2---3-----7---5-7-5-7-|
B|---------------------------------|
G|---------------------------------|
D|-2---3---4---5---0-------0-------|
A|---------------------------------|
E|---------------------------------|

            Затакт
E|-3-----||-----------------|----------------------------------|
B|-3-----||-3-------0-------|------------------3-------0-------|
G|-4-----||-----------------|-0--------------------------------|
D|-5-----||---0---0---0---0-|---0---0---0---0----0---0---0---0-|
A|-------||-----2-------2---|-----2-------2--------2-------2---|
E|---3-3-||-3-------3-------|-3-------3--------3-------3-------|

E|---------------------------------|
B|-----------------3-------0-------|
G|-1-------------------------------|
D|---2---2---2---2---2---2---2---2-|
A|-----2-------2-------2-------2---|
E|-0-------0-------0-------0-------|

E|-----------------0---------------|
B|-------------------------3-------|
G|-1-------------------------------|
D|---2---2---2---2---2---2---2---2-|
A|-----2-------2-------2-------2---|
E|-0-------0-------0-------0-------|

E|-----------------0-------0-1-3-0-|
B|-1-------------------------------|
G|---2---2---2---2---2---2---------|
D|-----2-------2-------2-----------|
A|-0-------0-------0-------0-------|
E|---------------------------------|

E|-3-1-0-1-3-1-------------------|
B|-------------3-1-------0-1-3-0-|
G|-----------------2---2---------|
D|-0-----------------2-----------|
A|---------------0---------------|
E|-----------------------0-------|

E|-----------------0-------0-1-3-0-|
B|-3-1-0-1---0-1-3-----------------|
G|---------2---------2---2---------|
D|---------------------2-----------|
A|-0---------------0-------0-------|
E|---------------------------------|

E|-3-1-0-1-3-1-0-------------------|
B|---------------3-1-------0-1-3-0-|
G|-------------------2---2---------|
D|-0-------------------2-----------|
A|-----------------0---------------|
E|-------------------------0-------|

E|-------------5---6-----------6|-5----------------------------|
B|-------------------5---5------|-----6---------------3-------5|
G|-2-------------------5--------|---------5--------------------|
D|-----------------5-------5----|-------------7----------------|
A|-0----------------------------|-8---------------1-------3----|
E|------------------------------|------------------------------|

E|-------1-----1---3-----------3|-1----------------------------|
B|-----1-------------2---2------|-----3------------------------|
G|---2-----------------2--------|---------2-----------3-------6|
D|-3---------------2-------2----|-0----------------------------|
A|---------0--------------------|------------------------------|
E|------------------------------|-------------1---3-------5----|

E|-------1-----------------3---1|-0----------------------------|
B|-----3-------1---0------------|-------------0-----------3---1|
G|---2---------------0---0------|---0---0---------2------------|
D|-0-------0-----------0--------|-----2-------------0---0------|
A|-------------------------2----|-3-------3-----------0--------|
E|-----------------3------------|-----------------1-------1----|

E|-----------3---0---3---1---0--|-----------3---0---3---1---0--|
B|-0----------------------------|-3---1------------------------|
G|-------------0---0---0---0---0|---0---0-----0---0---0---0---0|
D|---0---0-----------2---0------|-------------------2---0------|
A|-----2-----2---3-----------3--|-2---0-----2---3-----------3--|
E|-3-------3--------------------|---------3--------------------|

E|-------------3---4---5---3---1-|-0------0---1---2---3---1----|
B|-3---1---0---------------------|----3----------------------3-|
G|---0---0-----5---6---7---5---3-|-----------------------------|
D|-------------------------------|-2--0---2---3---4---5---3--0-|
A|-2---0-------------------------|-----------------------------|
E|---------3---------------------|-----------------------------|

E|---------1-0-1-------0-------|-------0-----0---1---2---3---4-|
B|-1---0---------3-1-------3-0-|-----1-------------------------|
G|-----------------0-----------|---0---------------------------|
D|---------3-------------------|-----------2---3---4---5---6---|
A|-3---------------------------|-3-------3---------------------|
E|-------------------------3---|-------------------------------|

E|---5---6---7----8---3-1-0-1---|-------------0---1---2---3---4|
B|----------------------------3-|-1----------------------------|
G|------------------------------|---0---0----------------------|
D|-7---8---9---10---5-----------|-----2-----2---3---4---5---6--|
A|------------------------------|-3-------3--------------------|
E|----------------------3-------|------------------------------|

E|---5---6---7----8-----3---1-0-1------|-----------------||
B|--------------------------------3----|-1---------------||
G|-------------------------------------|-0---------------||
D|-7---8---9---10---5------------------|-2---------------||
A|-------------------------------------|-3---3---3-------||
E|--------------------------3----------|-----------------||
Добавлено: 02.11.2013
Другие материалы по этой песне:
  • Аккорды и текст

Страница создана 02.11.2013
http://primanota.ru/niccolo-paganini/sonata-v-c-chords.htm
Привет, Гость.
Предлагаем пройти революционный курс по гитаре.
Подарок от PrimaNota.Ru, забирай!