PrimaNota.ru - самый крупный в мире бесплатный архив песенных текстов, аккордов, табулатур и нот


Паганини Никколо - Каприз №7 - аккорды и текст, видео

Регистрация Запомнить меня
Войти через:  Facebook Google Twitter Vk Yandex Mail.ru

Паганини Никколо - Каприз №7 - аккорды и текст, видео

Печатать
Просмотров: 406
Уроки эстрадного вокала в Санкт-Петербурге
Каприз №7
Паганини Никколо
Posato
 
     forte
E||--------|--8----7-5--4----7--|--5--0----------5--7-|
B||--5--5--|--------------------|---------------------|
G||--------|--------------------|-------7-5-4-2--2--4-|
D||--------|--10---9-7--6----9--|--7------------------|
A||--7--7--|--------------------|-----7-5-3-2-0-------|
E||--------|--------------------|---------------------|

                                piano
E|-8--10-12--13---15-17-|-----------------|-----------------10-|
B|----------------------|--------------3--|--------------9-----|
G|-5--7--9---10---12-14-|-----------------|--5---4-2--------7--|
D|----------------------|--5--------6-----|-----------6--6-----|
A|----------------------|--------------5--|--3---2-0-----------|
E|----------------------|--3--------4-----|-----------4--------|

          Pianissimo                              forte
E|-8---7-5--4--3--1--|--0---7----0--------|--0-------------|
B|-------------------|------0-8------7----|-----------5--5-|
G|-5---4-2--1--0-----|--------0--------8--|----------------|
D|----------------3--|--2-----------------|----------------|
A|-------------------|-----------7---9-6--|--7--------7--7-|
E|-------------------|--------------------|----------------|

E|-8--7-5--4--7-|-5--0----------5--7--|--8---10-12--12---13-15-|
B|--------------|---------------------|------------------------|
G|--------------|------7-5-4-2--2--4--|--5---7--9---9----10-12-|
D|-10-9-7--6--9-|-7-------------------|------------------------|
A|--------------|----7-5-3-2-0--------|------------------------|
E|--------------|---------------------|------------------------|

E|-------18--17-|--13------------16--15--|--12--------------10-|
B|--------------|------------------------|------------------7--|
G|-------15--14-|--10--10--9--7--13--12--|--9---9--7--5--------|
D|-11-----------|------------------------|---------------------|
A|--------------|------------------------|---------------9-----|
E|-9------------|------10--8--7----------|------8--7--5--5-----|

                                 a   m i
E|-3-----10--3-----10--|--3-------1p0-----------------|
B|-0-----7---0-----7---|--3-----------3-1-------------|
G|---------------------|--4---------------4-2-0-------|
D|-0---------0---------|--5---------------------3-2-0-|
A|----9---------9------|--5---------------------------|
E|-3--5------3--5------|--3---------------------------|

                        VIII
E|---------------0---3p0-8-------------8---12p8-15p12-|
B|-----------1-----1---------------8-----8------------|
G|-------0-----0--------------9------9----------------|
D|---2-----2--------------------10--------------------|
A|-3---3-------------------10-------------------------|
E|----------------------------------------------------|

(искус.)
 флаж.)
                     a m i
E|({20}8)-8-7-6-5-4-3-0-------------------|
B|----------------------3-1p0-------------|
G|--------5-4-3-2-1-0---------2-0---------|
D|--------------------------------3-2-0---|
A|--------------------------------------3-|
E|--------8-7-6-5-4-3---------------------|

                      VII
E|-----------------------7------------7---10p7-15p10-|
B|-----------0---3p0-8------------8-----8------------|
G|-------0-----0-------7------7-----7----------------|
D|---0-----0--------------------9--------------------|
A|-2---2-------------------10------------------------|
E|---------------------------------------------------|

(искус.)
 флаж.)
                      a   m i
E|({19}7)-10-7-6-5-4-3-1p0-----------------|
B|-------------------------3-1-0-----------|
G|--------7--4-3-2-1-0-----------2-0-------|
D|-----------------------------------3-2-0-|
A|-----------------------------------------|
E|--------10-7-6-5-4-3---------------------|

E|--------------------------------------------10-12-13-15-17-|
B|---12p10-8-------------------------10-11-13----------------|
G|-----------10-9-7--------0---10/12-------------------------|
D|------------------10-8-7-----------------------------------|
A|---------------------------8-------------------------------|
E|-8---------------------------------------------------------|

E|-------------------------------------7-9-10-12-13-|
B|---8p6-5------------------------8-10--------------|
G|---------7-6-------------7/9-10-------------------|
D|-------------8-7-5--------------------------------|
A|-0-----------------8-7-5--------------------------|
E|--------------------------------------------------|

E|-----------------------------------5-7-8-10-11-|
B|---6p5-3-----------------------6-8-------------|
G|---------5-4-2-----------5/7-8-----------------|
D|---------------5-3-2---------------------------|
A|---------------------5-3-----------------------|
E|-3---------------------------------------------|

             p    a m i  m  a m i  m
E|---------------------------8-9-10-11-|
B|-1---3-4--2------8-9-11-12-----------|
G|-1---1-1--3-8/10---------------------|
D|-1---1-1--1--------------------------|
A|-------------------------------------|
E|-4---4-4--3--------------------------|

             p    a m i  m  a m i  m
E|---------------------------8-9-10-11-|-------------------|
B|-1---3-4--2------8-9-11-12-----------|--1---3-4--1---3-4-|
G|-1---1-1--3-8/10---------------------|--1---1-1----------|
D|-1---1-1--1--------------------------|--1---1-1--4---4-4-|
A|-------------------------------------|-------------------|
E|-4---4-4--3--------------------------|--4---4-4--4---4-4-|

III                    V
E|---7p5-3-----------------8p7-5---------------|-----1---------|
B|-3-------6-5-3-----------------8-6-5---------|-------3-1-3-0-|
G|-4-------------5-4-2-0-5-------------7-5-4---|--2------0-0-0-|
D|-3-----------------------------------------7-|--3--3-3-2-3-0-|
A|-----------------------7---------------------|--3--0---------|
E|-3---------------------5---------------------|-------4-3-3-3-|

                                     a m i m i         p     m
E|----8--10--12-13-15-|--------7p5-3-----------------------|---|
B|-1------------------|--------------6-5-3-----------------|---|
G|-0--5--7---9--10-12-|--4-4---------------5-4-2-----------|---|
D|-2------------------|--3-3---------------------5-3-2-5p3-|-0-|
A|-3------------------|----5-------------------------------|---|
E|--------------------|--4---3-----------------------------|---|

                      a m  i  m                p    m a i
E|----------|----------9-------------|---------------------|
B|-1--------|------------11-10-8-6---|---------------------|
G|-0--------|--6---6---------------9-|--7-6------------0---|
D|-2--------|--5---5-----------------|------8-7------7-----|
A|-3--------|--7---7-0---------------|----------10p8-----7-|
E|----------|--6---0-----------------|---------------------|

E|-------------------|--0---0-0--0----0--|--1---1-----------|
B|-------------------|-------------------|--------6--6----6-|
G|-7---7-7--7-----8--|--1---2-4--5----3--|--2---3-5--6----4-|
D|-0---5-7--8-----7--|--2----------------|------------------|
A|-8---7-8--10----8--|-------------------|------------------|
E|-------------------|--0---2-4--5----3--|--1---3-5--6----4-|

E|-2---2------------|--3---3-3--3----3--|--4---6-4--4----5-|
B|-------7--7----7--|--------3--4----2--|--4---4-4--4----4-|
G|-3---4-6--7----5--|--4---5------------|--5---5-5--5----5-|
D|------------------|-------------------|------6-6--4----4-|
A|------------------|--------2--3----1--|------------------|
E|-2---4-6--7----5--|--3---5------------|--4---------------|

E|-5---6-8---8----6--|--6----6--4----4--|--2----2--1----1-|
B|-6-----6-----------|---------------6--|--4----4--2----2-|
G|-5---6-----6----6--|--6----5--5----4--|--3----1--1----1-|
D|-3-----------------|----------3----0--|--1--------------|
A|-----8-8---8----8--|--7----7----------|-------3--4----2-|
E|-------------------|------------------|-----------------|

E|------------------|-------------------|------------------|
B|-7---6-4----------|--7---6-4----------|--4---5----0----7-|
G|-6---6-4--8----6--|--6---6-6--7----7--|--------6-------4-|
D|-4---4-4--6----6--|--4---4-4--5----5--|--4---4-4--4----4-|
A|----------9----9--|-----------8----8--|-----------6----6-|
E|-6---6-6--7----7--|--6---6-6--7----6--|--6---6-6--7------|

                (Флаж)          a   m i m i
E|-4----4--2------|--------6-7---------------2---2-2-|
B|-0----2--2------|------7-----7-9p7---------2---0---|
G|-1----1--3------|----8-------------9-8-6---3-----3-|
D|-2----3--4------|------------------------9-----6-4-|
A|---------4------|----------------------------------|
E|---------2------|-(7)------------------------------|

              a   m i m i
E|---------4------------------------|
B|-----4-8---4-5p4---------4---4-4--|
G|---4-------------6-4-3---3---1-0--|
D|-6---------------------6-5---3-1--|
A|----------------------------------|
E|----------------------------------|

             a   m i m i
E|----------------------------------|
B|------0-4-5---------------0---0-0-|
G|----1-------4-6p4-----------------|
D|--2---------------8-6-4---4---2-1-|
A|------------------------7-6---4-2-|
E|----------------------------------|

E|----------------------------------|
B|------------------3p1-------------|
G|-4---4-4--------2-----2---0-------|
D|-4---2-0------4---------4---0-----|
A|-5---4-2--0h3-----------------2---|
E|--------------------------------3-|

            IV
E|-------------------7p5-----0-------|
B|--8---8-8--------4-----7-4---0-----|
G|--7---5-4------4---------------0---|
D|--9---7-5----4-------------------2-|
A|-----------6-----------------------|
E|-----------------------------------|

            i m   a\\\\\\           i m   a\\\\\\
E|---------0-3-8p3-0---------------0-3-7p3-0-------|
B|-------1-----------1-----------0-----------0-----|
G|-----0---------------0-------0---------------0---|
D|---2-------------------2---2-------------------2-|
A|-3-----------------------2-----------------------|
E|-------------------------------------------------|

          p m a m i             p i m a   i m   i
E|-------------0-----------------------------------|
B|-----------2---2-------------------1-4p1---------|
G|-------0-3-------3p0-------------2-------2-------|
D|-----2---------------2-------1-4-----------4p1---|
A|---4-------------------4---3-------------------3-|
E|-6-----------------------5-----------------------|

E|--------------------------------------0-5h8p5-0---|
B|-----------0-3p0----------------------------------|
G|---------1-------1------------------------------5-|
D|-----0-3-----------3p0-----------7-10-------------|
A|---2-------------------2---0---7------------------|
E|-4-----------------------4---8--------------------|

                                  a   m i a    m  i
E|---8p5---------------------------7p4-----10p7------|
B|-------6-----------------------5-----6-5------10-9-|
G|---------5-------------------4---------------------|
D|-7---------7---7---7---7---6-----------------------|
A|-------------8---7---6---7-------------------------|
E|---------------------------------------------------|

E|-----------------------------------|
B|-----------------------------------|
G|-10-9-7--------------------9---7-5-|
D|--------10-9-7-6-----0-------------|
A|-----------------8-7-------7---7-7-|
E|-----------------------8-7-8---7-5-|

                   a   m i a    m  i
E|-5----------------7p4-----10p7------|
B|----------------5-----6-5------10-9-|
G|-5------------4---------------------|
D|------------6-----------------------|
A|-6---6-6--7-------------------------|
E|-----8-5--4-------------------------|

                                                piano
E|------------------------------------|--5----------------|
B|------------------------------------|-------------------|
G|-10-9-7--------------------9---7-5--|--5----------------|
D|--------10-9-7-6-----0--------------|-------------------|
A|-----------------8-7-------7---7-7--|--6---6-6--7---8-6-|
E|-----------------------8-7-8---7-5--|------8-5--4---5-5-|

   pianissimo                               forte
E|---------------13-11--|--12---------------------|
B|---------------10-10--|-------------------------|
G|-----10-8--9----------|--13---------------------|
D|-----7--7--6----------|-------------6p4---------|
A|-7--------------------|-----------------7-5-4---|
E|-4--------------------|--0--------------------7-|

E|-------------------0---5-----------5---9p5-12p9-|
B|---------------2-----2---------5-----5----------|
G|-----------2-----2---------6-----6--------------|
D|-------2-----2---------------7------------------|
A|---4-----4---------------7----------------------|
E|-5---5------------------------------------------|

(искус.
 флаж.)
                      a   m i
E|-({17}5)-5-4-3-2-1-0---------------------|
B|---------------------2p0-----------------|
G|-------------------------2-1-------------|
D|---------7-6-5-4-3-2---------4-2-0-------|
A|-----------------------------------4-2---|
E|---------5-4-3-2-1-0-------------------5-|

E|-------------------0---4-----------4---7p4-12p7-|
B|---------------0-----0---------5-----5----------|
G|-----------1-----1---------4-----4--------------|
D|-------2-----2---------------6------------------|
A|---2-----2---------------7----------------------|
E|-4---4------------------------------------------|

(искус.
 флаж.)
E|({16}4)-7-4-3-2-1-0---------------------|
B|--------------------3p2-----------------|
G|------------------------4-2-1-----------|
D|--------9-6-5-4-3-2-----------4-2-0-----|
A|------------------------------------4-2-|
E|--------7-4-3-2-1-0---------------------|

E|---------------------------------------9-10-12-14-|
B|---8p7-5---------------------7-8-10-12------------|
G|---------7-6-4-----------7/9----------------------|
D|---------------7-5-4------------------------------|
A|-0-------------------7-5--------------------------|
E|--------------------------------------------------|

    i   a i m i
E|-----------------------------------4-6-7-9-10-|
B|---5p3-2-----------------------5-7------------|
G|---------4-3-------------4/6-7----------------|
D|-4-----------5-4-2----------------------------|
A|-------------------5-4-2----------------------|
E|----------------------------------------------|

    a   m i
E|-------------------------------------4-5-7-8-|
B|---3p2---------------------------5-7---------|
G|-------4-2-1-------------2/4-5-7-------------|
D|-2-----------4-2-0---------------------------|
A|-------------------4-2-0---------------------|
E|---------------------------------------------|

             a     m  i
E|-------5--6-12p10------------------------|--------5--8---7-5-|
B|-6---8----8-------13-11-10---------------|--6---8------------|
G|-5---5-5--5----------------12-10-9-------|--5---5-5--5---5-5-|
D|-7---5----5------------------------12-10-|--7---5-3----------|
A|-------8--7------------------------------|-----------6---6-6-|
E|-----------------------------------------|-------------------|

E|---------------9-10-12-14-16-------------------11-13-14-16-17|
B|9------9-10-12---------------10----------12-14---------------|
G|9-9/11--------------------------11/13-14---------------------|
D|9----------------------------11------------------------------|
A|7----------------------------9-------------------------------|
E|-------------------------------------------------------------|

                     (флаж)
E|-2---5-5--5---7----|------5--7--9----10-12-|
B|----------------9--|-----------------------|
G|-2---2-5--6---7----|-----------------------|
D|-0---4----------9--|------7--9--11---12-14-|
A|-------6--7---7-7--|-(12)------------------|
E|-------------------|-----------------------|

      (флаж)     a m i m i m
E|----------7p5-4---0-------------------|----5-|
B|-9---9----------7---3-2-0-------------|----2-|
G|-7---7--------------------2-1---------|----2-|
D|-----9------------------------4-2-0---|----2-|
A|-8----------------------------------4-|--2-0-|
E|------(12)----------------------------|------|
Добавлено: 14.09.2013
Другие материалы по этой песне:
  • Аккорды и текст

Страница создана 14.09.2013
http://primanota.ru/niccolo-paganini/kapriz-n7-chords.htm
Привет, Гость.
Предлагаем пройти революционный курс по гитаре.
Подарок от PrimaNota.Ru, забирай!