PrimaNota.ru - самый крупный в мире бесплатный архив песенных текстов, аккордов, табулатур и нот


New Found Glory - Stubborn - аккорды и текст, видео

Регистрация Запомнить меня
Войти через:  Facebook Google Twitter Vk Yandex Mail.ru

New Found Glory - Stubborn - аккорды и текст, видео

Печатать
Просмотров: 73
Stubborn
New Found Glory
New Found Glory - Stubborn


Intro:

    Bm   D  Bm        D  E     A    D  A  G     C#m D A
e|---------------------------------------------------------------------------|
B|---------------------------------------------------------------------------|
G|---------------7-----------------------------------------------------------|
D|--7-------7----7-------------7------7----5-x-x-----------------------------|
A|--9-------9----9----5h7------7----5-7----5-x-x-4/5p0-----------------------|
E|--7-7--10-7----7-7-----------5-5----5----3-x-x-----------------------------| x4


Verse:

Bm
Visions of red
        A                    G
I never thought that I could get here
       Bm
In the past the pain would blind me
       A                  G
And at times I'd wish you dead
Bm                  A                G
Now I see a picture clearer than the morning
   Bm
To you I was a monster
        A           G
And you had to save yourself


Chorus:
    G              D/F#
For only one more night
   A 
To hold you close
   E                 G
To tell you you were right
 D      A                 
Oh, and I'll take all the blame
    G             D/F#
For only one more night
   A                  E             G
To say what I was too stubborn to before
 D      A                       D\C#m  
Oh, and I'll take all the blame


    Bm   D  Bm        D  E     A    D  A  G     C#m D A
e|---------------------------------------------------------------------------|
B|---------------------------------------------------------------------------|
G|---------------7-----------------------------------------------------------|
D|--7-------7----7-------------7------7----5-x-x-----------------------------|
A|--9-------9----9----5h7------7----5-7----5-x-x-4/5p0-----------------------|
E|--7-7--10-7----7-7-----------5-5----5----3-x-x-----------------------------|
                 Stubborn, I was stubborn,  too stubborn before    


    Bm   D  Bm        D  E     A    D  A  G     C#m D A
e|---------------------------------------------------------------------------|
B|---------------------------------------------------------------------------|
G|---------------7-----------------------------------------------------------|
D|--7-------7----7-------------7------7----5-x-x-----------------------------|
A|--9-------9----9----5h7------7----5-7----5-x-x-4/5p0-----------------------|
E|--7-7--10-7----7-7-----------5-5----5----3-x-x-----------------------------|
                 Too stubborn before



Verse:
Bm
I left you alone
             A           G
While I went off into my own world
      Bm
Throw up my arms in anger
A                      G     
When you'd try to come pull me out
Bm                    A                G 
Now I see myself more clearly than the morning
Bm
To you I was hopeless
      A             G
And I had to save myself



    G            D/F#
For only one more night
   A 
To hold you close
   E                 G
To tell you you were right
 D      A                 
Oh, and I'll take all the blame
    G             D/F#
For only one more night
   A                  E            G
To say what I was too stubborn to before
 D      A                       D\C#m  
Oh, and I'll take all the blame


    Bm   D  Bm        D  E     A    D  A  G     C#m D A
e|---------------------------------------------------------------------------|
B|---------------------------------------------------------------------------|
G|---------------7-----------------------------------------------------------|
D|--7-------7----7-------------7------7----5-x-x-----------------------------|
A|--9-------9----9----5h7------7----5-7----5-x-x-4/5p0-----------------------|
E|--7-7--10-7----7-7-----------5-5----5----3-x-x-----------------------------|
                 Stubborn, I was stubborn,  too stubborn before  
  

    Bm   D  Bm        D  E     A    D  A  G     C#m D A
e|---------------------------------------------------------------------------|
B|---------------------------------------------------------------------------|
G|---------------7-----------------------------------------------------------|
D|--7-------7----7-------------7------7----5-x-x-----------------------------|
A|--9-------9----9----5h7------7----5-7----5-x-x-4/5p0-----------------------|
E|--7-7--10-7----7-7-----------5-5----5----3-x-x-----------------------------|
                 Too stubborn before



Break:

e|---------------------------------------------------------------------------|
B|---------------------------------------------------------------------------|
G|---------------------------------------------------------------------------|
D|--9-9-9-9-9-9-9-9-9-9-9-9-9-9-9-9-9-9-9-9-9-9-9-9-9-9-9-9-9-9-9-9-9-9-9-9--|
A|--9-9-x-x-x-x-x-x-x-x-x-x-x-x-x-x-x-x-x-x-x-x-x-x-x-x-x-x-x-x-x-x-x-x-x-x--|
E|--7-7-x-x-x-x-x-x-x-x-x-x-x-x-x-x-x-x-x-x-x-x-x-x-x-x-x-x-x-x-x-x-x-x-x-x--| x2
 
e|---------------------------------------------------------------------------|
B|---------------------------------------------------------------------------|
G|---------------------------------------------------------------------------|
D|--9-9-9-9-9-9-9-9-9-9-9-9-9-9-9-9-9-9-9-9-9-9-9-9-9-9-9-9-9-9-9-9-9-9-9-9--|
A|--9-9-x-x-x-x-x-x-x-x-x-x-x-x-x-x-x-x-x-9-9-x-x-x-x-x-x-x-x-x-x-x-x-x-x-x--|
E|--7-7-x-x-x-x-x-x-x-x-x-x-x-x-x-x-x-x-x-7-7-x-x-x-x-x-x-x-x-x-x-x-x-x-x-x--| x2



Bm
I'm not trying to win you back

I'm not on my knees

I owe you this much
                                Fm  G  A    Bm   Fm   G    A    Bm  Fm G A
I'm not holding grudges anymore                       Anymore


Bm  Fm G A


Bm  Fm  G         A        Bm
I'm not trying to win you back
    Fm  G  A  Bm
I'm not on my knees
  Fm      G    A
I owe you this much
Bm  Fm  G       A
I'm not holding grudges anymore

[Solo]
Bm                G  D  A  Bm 



    G             D/F#
For only one more night
   A 
To hold you close
   E                 G
To tell you you were right
 D      A                 
Oh, and I'll take all the blame
    G             D/F#
For only one more night
   A                  E             G
To say what I was too stubborn to before
 D      A                      
Oh, and I'll take all the blame
G D             A          E             G
Stubborn, I was stubborn, too stubborn before 

D              A    D\C#m  
Too stubborn before

    Bm   D  Bm        D  E     A    D  A  G     C#m D A
e|---------------------------------------------------------------------------|
B|---------------------------------------------------------------------------|
G|---------------7-----------------------------------------------------------|
D|--7-------7----7-------------7------7----5-x-x-----------------------------|
A|--9-------9----9----5h7------7----5-7----5-x-x-4/5p0-----------------------|
E|--7-7--10-7----7-7-----------5-5----5----3-x-x-----------------------------|
                   

    Bm   D  Bm        D  E     A    D  A  G     C#m D A
e|---------------------------------------------------------------------------|
B|---------------------------------------------------------------------------|
G|---------------7-----------------------------------------------------------|
D|--7-------7----7-------------7------7----5-x-x-----------------------------|
A|--9-------9----9----5h7------7----5-7----5-x-x-4/5p0-----------------------|
E|--7-7--10-7----7-7-----------5-5----5----3-x-x-----------------------------|



I feel like the verse is played with different chords, but these sound right! Also I hope you understand the 
structure of the song, it's kind of hard to transpose rapidly changing powerchords to chords, but yeah... like the D\C#m is a slide from D to C#m.

The D/F# is to be played like 
e|--------- 
B|--------- 
G|--------- 
D|---4---- 
A|---5----
E|---2----

Feel free to ask anything or comment! And thanks to wy2sl0 for making it much better :)


                
Добавлено: 16.09.2014
Другие материалы по этой песне:
  • Аккорды и текст

Страница создана 16.09.2014
http://primanota.ru/new-found-glory/stubborn-chords.htm
Привет, Гость.
Предлагаем пройти революционный курс по гитаре.
Подарок от PrimaNota.Ru, забирай!