PrimaNota.ru - самый крупный в мире бесплатный архив песенных текстов, аккордов, табулатур и нот


New Found Glory - One More Round - таба, видео

Регистрация Запомнить меня
Войти через:  Facebook Google Twitter Vk Yandex Mail.ru

New Found Glory - One More Round - таба, видео

Печатать
Просмотров: 77
                            One More Round - New Found Glory
My first tab. Worked this out by ear so theres probably a fair few mistakes.

************************************
| h   hammer-on
| p   pull-off
| x   Mute note
| b   Bend
| \ slide down
************************************
Tuning: Standard
      INTRO
e|-------------------------------------------|
B|-------------------------------------------|
G|-------------------------------------------|     
D|-4-x-x-----4-x-x-----4-------4-4-4-4-6-----|   x4
A|-2-x-x-----2-x-x-----2-------2-2-2-2-4-----|
E|-------2h4-------2h4---0-2h4---------------|
      
     VERSE
e|-------------------------------------|
B|-------------------------------------|
G|-------------------------------------|
D|-1-1-1-2--2-2-2-2--------------------|   x6
A|-2-2-2-2--2-2-2-2-4-4-4-2--2-2-2-2---|
E|------------------2-2-2-0--0-0-0-0---|

        PRE CHORUS
e|----------------------|
B|----------------------|
G|-------------4--------|
D|-----4---6---4--------|  x2
A|-2---4---6---2--------|
E|-0---2---4------------|

       CHORUS
e|-------------------------------------------|
B|-------------------------------------------|
G|-------------------------------------------|     
D|-4-x-x-----4-x-x-----4-------4-4-4-4-6-----|   x4
A|-2-x-x-----2-x-x-----2-------2-2-2-2-4-----|
E|-------2h4-------2h4---0-2h4---------------|

     VERSE 2
e|-------------------------------------|
B|-------------------------------------|
G|-------------------------------------|
D|-1-1-1-2--2-2-2-2--------------------|   x5
A|-2-2-2-2--2-2-2-2-4-4-4-2--2-2-2-2---|
E|------------------2-2-2-0--0-0-0-0---|

     SOLO
e|--------------------------------------------------------|
B|--------------------------------------------------------|
G|-8-8-8-8-8p6--8-8-8-8-8b-8-8-8-8-8p6--8-8-8-8-4\6-------|
D|------------9-----------------------9-------------------| x2
A|--------------------------------------------------------|
E|--------------------------------------------------------|

      BRIDGE
e|---------------------------------------------------------------------------|
B|---------------------------------------------------------------------------|
G|---------------------------------------------------------------------------|
D|-6---4-------6---4-----------6---4--------6---4----------------------------|
A|-6---4---2---6---4---2-4-6---6---4--2-2---6---4---2-4-6--------------------|
E|-4---2---0---4---2---0-2-4---4---2--0-0---4---2---0-2-4--------------------|

     OUTRO
e|-------------------------------------------|
B|-------------------------------------------|
G|-------------------------------------------|     
D|-4-x-x-----4-x-x-----4-------4-4-4-4-6-----|   x7
A|-2-x-x-----2-x-x-----2-------2-2-2-2-4-----|
E|-------2h4-------2h4---0-2h4---------------|

e|-------------------------------------------|
B|-------------------------------------------|
G|-------------------------------------------|     
D|-4-x-x-----4-x-x-----4-------4-6-4---------|   
A|-2-x-x-----2-x-x-----2-------2-4-2---------|
E|-------2h4-------2h4---0-2h4---------------|
Добавлено: 12.10.2015
Другие материалы по этой песне:
  • Аккорды и текст

Страница создана 12.10.2015
http://primanota.ru/new-found-glory/one-more-round-chords.htm
Привет, Гость.
Предлагаем пройти революционный курс по гитаре.
Подарок от PrimaNota.Ru, забирай!