PrimaNota.ru - самый крупный в мире бесплатный архив песенных текстов, аккордов, табулатур и нот


New Found Glory - Snow - таба, видео

Регистрация Запомнить меня
Войти через:  Facebook Google Twitter Vk Yandex Mail.ru

New Found Glory - Snow - таба, видео

Печатать
Просмотров: 125
New Found Glory Single - SNOW
Tuning -  Standard
Tabbed By:  Jeff Martin

Chords Used:

Cadd9   |032033|
Em7     |020033|
A7sus4  |002033|
G/Gb    |2x0033|

Riff 1:  Verse

|-----------------------------------------------------------------:||
|-3-------0-----------------------3-------0-------7-------7p5-----:||
|-----------------5-------0---------0-------0-------0---------0---:||
|---0-------0-------0-------0-------------------------------------:||
|---------------------------------3---3---3---3---5---5---5-------:||
|-3---3---3---3---3---3---3---3-----------------------------------:||

Riff 2:  Chorus

|------------------------------------8------|
|---8---10-8---8---10-8---8---10-8-----10-8-|
|-----7----------7----------7---------------|
|-0----------0----------0----------0--------|
|-------------------------------------------|
|-------------------------------------------|

|-------------------------------------------|
|---8---10-8---8---10-8---8---10-8----8-7-7-|
|-----7----------7----------7---------------|
|-0----------0----------0----------0--------|
|-------------------------------------------|
|-------------------------------------------|

|------------------------------------8------|
|---8---10-8---8---10-8---8---10-8-----10-8-|
|-----7----------7----------7---------------|
|-0----------0----------0----------0--------|
|-------------------------------------------|
|-------------------------------------------|

|-------------------------------------8--------|
|---8---10-8---8---10-8---8---10-8------10-7-8-|
|-----7----------7----------7------------------|
|-0----------0----------0----------0-----------|
|----------------------------------------------|
|----------------------------------------------|

SONG >>>

Intro:  Riff 1 [X2]

< Verse >

[Riff 1]                                  [Riff 1]
Another year went by, oh I need this time
[Riff 1]                                              [Riff 1]
To unravel like these lights, that I'll hang outside
[Riff 1]                                              [Riff 1] 
We made it through just fine, though a part has died
[Riff 1]                                                           [Riff 1]
But up from it's ashes grew a tree, with a star that lit the night
 
< Chorus >
       Cadd9                     Em7        A7sus4
I will lie in the snow, and melt all of the cold
         Cadd9    Em7       A7sus4     A7sus4 - Em7
With the bur-ning fire in my soul
        Cadd9    Em7         A7sus4             Em7   
Because, nothing turns me to stone, cold as the winter is
   Cadd9    Em7      A7sus4      Em7    G/Gb    [Riff 1] X2
It makes me feel all right, each Christ-mas...  time

< Verse >

[Riff 1]                                                      [Riff 1]
And I'll count the photos in the hallway of my family that have past
[Riff 1]                                                                    [Riff 1]
And the stories, through the evening, keep the smiling, hurts less if we can laugh

< Chorus >
       Cadd9                     Em7        A7sus4
I will lie in the snow, and melt all of the cold
         Cadd9    Em7       A7sus4     A7sus4 - Em7
With the bur-ning fire in my soul
        Cadd9    Em7         A7sus4             Em7   
Because, nothing turns me to stone, cold as the winter is
   Cadd9    Em7      A7sus4      Em7    G/Gb    [Riff 3... see bridge]
It makes me feel all right, each Christ-mas...  time

Bridge

|-------------------------------:||    |-----------------------------:||
|-7-------7-------8-------8-----:||    |-7-------7-------8-------5---:||
|---0-------0-------0-------0---:||    |---0-------0-------0---------:||
|-------------------------------:||    |-----------------------------:||
|-7---7---7---7---7---7---7---7-:||    |-5---5---5---5---5---5---5---:||
|-------------------------------:|| X2 |-----------------------------:|| X2

|-------------------------------:||    |-----------------------------:||
|-7-------7-------8-------8-----:||    |-7-------7-------8-------5---:||
|---0-------0-------0-------0---:||    |---0-------0-------0---------:||
|-------------------------------:||    |-----------------------------:||
|-7---7---7---7---7---7---7---7-:||    |-5---5---5---5---5---5---5---:||
|-------------------------------:|| X2 |-----------------------------:|| X2

|--------------------------------------------------------------------:||
|-5-------5-------7-------7-------12--------12--------10--------7----:||
|---0-------0-------0-------0--------0---------0---------0-----------:||
|--------------------------------------------------------------------:||
|-3---3---3---3---5---5---5---5---10---10---10---10---10---10---5----:||
|--------------------------------------------------------------------:|| X3
        Cadd9    Em7         A7sus4             Em7   
Because, nothing turns me to stone, cold as the winter is
   Cadd9    Em7      A7sus4      Em7    G/Gb    [Riff 1] X4
It makes me feel all right, each Christ-mas...  time

Each Christmas time

Each Christmas time

Each Christmas time

Each Christmas time
Добавлено: 14.08.2015
Другие материалы по этой песне:
  • Аккорды и текст

Страница создана 14.08.2015
http://primanota.ru/new-found-glory/snow-chords.htm
Привет, Гость.
Предлагаем пройти революционный курс по гитаре.
Подарок от PrimaNota.Ru, забирай!