PrimaNota.ru - самый крупный в мире бесплатный архив песенных текстов, аккордов, табулатур и нот


New Found Glory - Living Hell - таба, видео

Регистрация Запомнить меня
Войти через:  Facebook Google Twitter Vk Yandex Mail.ru

New Found Glory - Living Hell - таба, видео

Печатать
Просмотров: 69
Intro & Chorus of Living Hell
off New Found Glory's 2014 album Resurrection (A fantastic album I might add)

First tab!
tabbed by itsthevinylcountdown
trace517@gmail.com

Standard tuning

Here's the main riff

e-----------------------------------------|
b-----------------------------------------|
G--------14-14-9-9------11---9----7-7-----|
D--12-12--------------9----7---7--5-5-----|
A-----------------------------------------|
E-----------------------------------------|


and the chorus

e---------------------------|             e--------------------|
b---------------------------|             b--------------------|
G---------------------------|             G--------------------|
D---------------------------|   X3  then  D----------7-7-7-7---|
A--5------------------------|             A--5-------7-7-7-7---|
E----2-3----7-5--7-5-7-5----|             E----2-3---5-5-5-5---|


That's as much as I've got, if anyone can figure out that little run he does in the
verses or anything else it'd be appreciated!
Thanks,
Trace


Добавлено: 12.10.2015
Вам также может быть интересно:
Другие материалы по этой песне:
  • Аккорды и текст

Страница создана 12.10.2015
http://primanota.ru/new-found-glory/living-hell-chords.htm
Привет, Гость.
Предлагаем пройти революционный курс по гитаре.
Подарок от PrimaNota.Ru, забирай!