PrimaNota.ru - самый крупный в мире бесплатный архив песенных текстов, аккордов, табулатур и нот


Neck Deep - Zoltar Speaks - бас-таба, видео

Регистрация Запомнить меня
Войти через:  Facebook Google Twitter Vk Yandex Mail.ru

Neck Deep - Zoltar Speaks - бас-таба, видео

Печатать
Просмотров: 29
Neck Deep - Zoltar Speaks

Tabbed by: Ashy (XxThreeCheersxX)
E-mail: burdickash@gmail.com

Tuning: Drop C

Intro
F|---------------------------------------------------------------------------------------|
C|---------------------------------------------------------------------------------------|
G|---------------------------------------------------------------------------------------|
C|-9x-------------------------5--5--5--5-9~------------------------9x----12--12--11--11--|

Main Riff
F|-----------------------------------------------------------------|
C|-----------------------------------------------------------------|
G|-----------------------------------------------------------------|
C|-9-9-9-9-9-9-9-9-5-5-5-5-5-5-5-5-0-0-0-0-0-0-0-0-7-7-7-7-7-7-7-7-|

F|-----------------------------------------------------------------|
C|-----------------------------------------------------------------|
G|-----------------------------------------------------------------|
C|-9-9-9-9-9-9-9-9-5-5-5-5-5-5-5-5-7-7-7-7-7-7-7-7-7-7-7-7-7-7-7-7-|

Pre-Verse
F|--------------------------|
C|--------------------------|
G|--------------------------|
C|-9~---------------------7-|

Verse
F|-----------------------------------------------------------------|
C|-----------------------------------------------------------------|
G|-----------------------------------------------------------------|
C|-9-9-9-9-9-9-9-9-9-9-9-9-9-9-9-9-5-5-5-5-5-5-5-5-5-5-5-5-5-5-5-5-|

F|--------------------------------------------------------|
C|--------------------------------------------------------|
G|--------------------------------------------------------|
C|-7-7-7-7-7-7-7-7-7-7-7-7-7-7-7-7-5----5----5----5----7--|

F|-----------------------------------------------------------------|
C|-----------------------------------------------------------------|
G|-----------------------------------------------------------------|
C|-9-9-9-9-9-9-9-9-9-9-9-9-9-9-9-9-5-5-5-5-5-5-5-5-5-5-5-5-5-5-5-5-|

F|-----------------------------------------------------------------|
C|-----------------------------------------------------------------|
G|-----------------------------------------------------------------|
C|-7-7-7-7-7-7-7-7-7-7-7-7-7-7-7-7-7-7-7-7-7-7-7-7-12--12--11--11--|

Main Riff 

Chorus x 4
F|---------------------------------------------------------------|
C|---------------------------------------------------------------|
G|---------------------------------------------------------------|
C|-0-0-0-0-0-4----7--7-7-7-7-7-7-5-5-5-5-5-5-5-5-5-5-5-5-5-7-7-7-|

Verse II 
F|-------------------------------------------------|
C|-------------------------------------------------|
G|-------------------------------------------------| x 4
C|-9--9--9--9--5--5--5--5--7--7--7--7--0--0--0--0--|

"How did it come to this"
F|-----------------------------------------------------------|
C|-----------------------------------------------------------|
G|-----------------------------------------------------------| x 4
C|-9--9--9--9--0--0-0-0-0-0-0-0-7-7-7-7-7-7-5--5-5-5-5-5-5-5-|

Chorus II
F|---------------------------------------------------------------|
C|---------------------------------------------------------------|
G|---------------------------------------------------------------| x 3
C|-0-0-0-0-0-4----7--7-7-7-7-7-7-5-5-5-5-5-5-5-5-5-5-5-5-5-7-7-7-|

F|---------------------------------------------------------------|
C|---------------------------------------------------------------|
G|---------------------------------------------------------------|
C|-0-0-0-0-0-4----7--7-7-7-7-7-7-5~------------------------------|

Key Change Chorus
F|-------------------------------------------------------------------------|
C|-------------------------------------------------------------------------|
G|-------------------------------------------------------------------------| x 3
C|-3-3-3-3-3-7----10--10-10-10-10-10-10-8-8-8-8-8-8-8-8-8-8-8-8-8-10-10-10-|

F|-------------------------------------------------------------------------|
C|-------------------------------------------------------------------------|
G|-------------------------------------------------------------------------| 
C|-3-3-3-3-3-7----10--10-10-10-10-10-10-8~---------------------------------|

Happy playing!

| /  slide up
| \  slide down
| h  hammer-on
| p  pull-off
| ~  vibrato
| +  harmonic
| x  Mute note
===============================================================================
Добавлено: 19.05.2016
Другие материалы по этой песне:
  • Аккорды и текст

Страница создана 19.05.2016
http://primanota.ru/neck-deep/zoltar-speaks-chords.htm
Привет, Гость.
Предлагаем пройти революционный курс по гитаре.
Подарок от PrimaNota.Ru, забирай!