PrimaNota.ru - самый крупный в мире бесплатный архив песенных текстов, аккордов, табулатур и нот


Neck Deep - Up In Smoke - бас-таба, видео

Регистрация Запомнить меня
Войти через:  Facebook Google Twitter Vk Yandex Mail.ru

Neck Deep - Up In Smoke - бас-таба, видео

Печатать
Просмотров: 45
Уроки эстрадного вокала в Санкт-Петербурге
Neck Deep - Up in Smoke (2014)

Tabbed by: Ash (XxThreeCheersxX)
E-mail: burdickash@gmail.com

Tuning: Drop C

Intro
F|---------------------------------------------------------------|
C|---------------------------------------------------------------|
G|---------------------------------------------------------------|
C|-7~---------------9~---------------11--11--9--9--7--7-7-7-7----|

Verse I
F|-----------------------------------------------------------------|
C|-----------------------------------------------------------------|
G|-----------------------------------------------------------------|
C|-7-7-7-7-7-7-7-7-7-7-7-7-7-7-7-7-9-9-9-9-9-9-9-9-9-9-9-9-9-9-9-9-|

F|-------------------------------------------------------------------------|
C|-------------------------------------------------------------------------|
G|---------------------------------7-7-7-7---------------------------------|
C|-11-11-11-11-11-11-11-11-9-9-9-9---------7-7-7-7-7-7-7-7-7-7-7-7-7-7-7-7-|

F|-----------------------------------------------------------------|
C|-----------------------------------------------------------------|
G|-----------------------------------------------------------------|
C|-7-7-7-7-7-7-7-7-7-7-7-7-7-7-7-7-9-9-9-9-9-9-9-9-9-9-9-9-9-9-9-9-|

F|-----------------------------------------------------------------|
C|-----------------------------------------------------------------|
G|-----------------------------------------------------------------|
C|-11--11--9-9-9--7--7-7-7-7--11--11--9-9-9--7~--------------------|

Verse II
F|-----------------------------------------------------------------|
C|-----------------------------------------------------------------|
G|-----------------------------------------------------------------|
C|-7-7-7-7-7-7-7-7-7-7-7-7-7-7-7-7-9-9-9-9-9-9-9-9-9-9-9-9-9-9-9-9-|

F|-----------------------------|
C|-----------------------------|
G|-----------------------------|
C|-11--11--9--9--7--7-7-7-7----|

F|-----------------------------------------------------------------|
C|-----------------------------------------------------------------|
G|-----------------------------------------------------------------|
C|-7-7-7-7-7-7-7-7-7-7-7-7-7-7-7-7-9-9-9-9-9-9-9-9-9-9-9-9-9-9-9-9-|

F|-----------------------------------------------------------------|
C|-----------------------------------------------------------------|
G|-----------------------------------------------------------------|
C|-11--11--9--9--7--7-7-7-7--11--11--9--9--7~----------------------|

Pre-Chorus
F|------------------------------------------------------------------|
C|------------------------------------------------------------------|
G|------------------------------------------------------------------|
C|-9~--------11~--------7~----------------9~--------11~------2-2----|

Chorus
F|-----------------------------------------------------------------|
C|-----------------------------------------------------------------|
G|-4-4-4-4-4-4-4-4-7-7-7-7-7-7-7-7---------------------------------|
C|---------------------------------9-9-9-9-9-9-9-9-7-7-7-7-7-7-7-7-|

F|-----------------------------------------------------------------|
C|-----------------------------------------------------------------|
G|-4-4-4-4-4-4-4-4-7-7-7-7-7-7-7-7---------------------------------|
C|---------------------------------9----9----9----7-7-7-7-7--------|

Verse I + II (same as before)

Bridge
F|------------------------------|
C|------------------------------|
G|------------------------------| x 3
C|-11---\7----11---\7----9--9-9-|

F|--------------------------------------------------------------------------------------|
C|--------------------------------------------------------------------------------------|
G|--------------------------------------------------------------------------------------|
C|-11-11--11-11--7-7--9-9--11--9--7--7~----------------7-7-7-7-7-7-7-7-7-7-7-7-7--------|

F|--------------------------------------------------|
C|--------------------------------------------------|
G|--------------------------------------------------|
C|-7~----------------11-11--7-7--9-9--7-7--7--------|

Chorus II
F|-----------------------------------------------------------------|
C|-----------------------------------------------------------------|
G|-4-4-4-4-4-4-4-4-7-7-7-7-7-7-7-7---------------------------------|
C|---------------------------------9-9-9-9-9-9-9-9-7-7-7-7-7-7-7-7-|

F|-----------------------------------------------------------------|
C|-----------------------------------------------------------------|
G|-4-4-4-4-4-4-4-4-7-7-7-7-7-7-7-7---------------------------------|
C|---------------------------------9----9----9----7-7-7-7-7--------|

F|---------------------------------------------------------------|
C|---------------------------------------------------------------|
G|-4--4-4--4-4-----7--7-7--7-7-----------------------------------|
C|---------------------------------9--9-9--9-9----7--7-7-7-7-7-7-|

F|-----------------------------------------------------------------|
C|-----------------------------------------------------------------|
G|-4-4-4-4-4-4-4-4-7-7-7-7-7-7-7-7---------------------------------|
C|---------------------------------9----9----9----7-7-7-7-7--------|

Verse I

Happy playing!

| /  slide up
| \  slide down
| h  hammer-on
| p  pull-off
| ~  vibrato
| +  harmonic
| x  Mute note
===============================================================================
Добавлено: 19.05.2016
Вам также может быть интересно:
Другие материалы по этой песне:
  • Аккорды и текст

Страница создана 19.05.2016
http://primanota.ru/neck-deep/up-in-smoke-chords.htm
Привет, Гость.
Предлагаем пройти революционный курс по гитаре.
Подарок от PrimaNota.Ru, забирай!