PrimaNota.ru - самый крупный в мире бесплатный архив песенных текстов, аккордов, табулатур и нот


My Dying Bride - Santuario Di Sangue - текст песни, таба, видео

Регистрация Запомнить меня
Войти через:  Facebook Google Twitter Vk Yandex Mail.ru

My Dying Bride - Santuario Di Sangue - текст песни, таба, видео

Печатать
Просмотров: 176
Авторы музыки: My Dying Bride
Авторы текста: My Dying Bride
This is how I play it. It took me about 40 minutes to figure it out. I'm not sure 
about ending (the very last lick... its very quiet so it's hard to hear).

symbols used: ~ vibrato ph - pinch harmonic pm . . . - palm muting
/ - slide, h - hammer-on, p - pull-off

tabbed for standard E 
if you want to play it along with the song make sure to downtune to C# (all 
strings 1,5 step down) - frets are same for C#

Fig 1 intro 00:00-00:35
e|-------------------------------------------------------------------|
b|-------------------------------------------------------------------|
G|-------------------------------------------------------------------|
D|-------------------------------------------------------------------|
A|----2-3/7p67p67s-------10-10p9-9p7-6-6h7-7h9-9h10-9----------------|
E|--0----------------0-----------------------------------------------|

e|-------------------------------------------------------------------|
b|-------------------------------------------------------------------|
G|-------------------------------------------------------------------|
D|-------------------------------------------------------------------|
A|----2-3/7p6-7/10-10------12-12p10 9h10-9-7h9-7---------------------|
E|--0----------------------------------------------------------------|

Fig 2 verse 1 00:36-00:53
e|-------------------------------------------------------------------|
b|-------------------------------------------------------------------|
G|-------------------------------------------------------------------|
D|----------------------------------------4-5-8-7--------------------|
A|-------7-----------3-2---------------7--2-3-6-5--------------------|
E|--0--------------------3-2-----0-----------------------------------|

e|-------------------------------------------------------------------|
b|-------------------------------------------------------------------|
G|-------------------------------------------------------------------|
D|-------------------------------------------------------------------|
A|-------7-----------3-2---------------7--3-2------------------------|
E|--0--------------------3-2-----0------------3-2--------------------|


fig 3 verse 2 00:54-1:01:11
e|-------------------------------------------------------------------|
b|-------------------------------------------------------------------|
G|-------------------------------------------------------------------|
D|--------------------------------------------4-5-8-7----------------|
A|----------------7~~~~-----3-2------------7--2-3-6-5----------------|
E|--0-0-0-0---------------------3-2----0-----------------------------|
 pm . . . .      ph

e|-------------------------------------------------------------------|
b|-------------------------------------------------------------------|
G|-------------------------------------------------------------------|
D|-------------------------------------------------------------------|
A|-------7-----------3-2---------------7--3-2------------------------|
E|--0--------------------3-2-----0------------3-2--------------------|

Fig 4 pre-refrain 01:12-01:47 repeat x 2


e|-------------------------------------------------------------------|
b|-------------------------------------------------------------------|
G|-------------------------------------------------------------------|
D|-------------------------------------------------------------------|
A|-------/10-9-7-5-7-5-------------2/5-9-9/7-7-----------------------|
E|--0-------------------------0--------------------------------------|


Fig 5 refrain 01:47-02:20 play x 3

e|-------------------------------------------------------------------|
b|-------------------------------------------------------------------|
G|-------4---------------7-------------------------------------------|
D|--2----4----5------4---7-------------------------------------------|
A|--2----2----5------4---5-------------------------------------------|
E|--0---------3------2---------------------3-2-----------------------|

Fig 6 end of refrain 02:13-02:28 let ring until it fades
e|-------------------------------------------------------------------|
b|-------------------------------------------------------------------|
G|-------4---------------7-------------------------------------------|
D|--2----4----5------4---7-------------------------------------------|
A|--2----2----5------4---5-------------------------------------------|
E|--0---------3------2-----------------------------------------------|

Fig 7 bridge 03:20-03:55

e|-------------------------------------------------------------------|
b|-------------------------------------------------------------------|
G|-------------------------------------------------------------------|
D|----------------------2--------------------------------------------|
A|-------7--------5-----2--------------------------------------------|
E|--3--------2----------0--------------------------------------------|

then again Fig 5 03:55-04:31
Fig 1 intro 04:31-05:05
Fig 2 verse 05:05-05:24
fig 3 verse 05:25-05:43
fig 4 pre-refrain 05:44-06:17
fig 5 refrain 06:18-06:53


Fig 8 end/outro 06:54 - 07:30  [not sure about this ending...] 
e|-------------------------------------------------------------------|
b|-------------------------------------------------------------------|
G|-------------------------------------------------------------------|
D|----------------------2------2-4-5-4-2--2-2h4-4-2------------------|
A|-------7--------5-----2--------------------------------------------|
E|--3--------2----------0--------------------------------------------|
Добавлено: 13.11.2013
Другие материалы по этой песне:
  • Аккорды и текст

Страница создана 13.11.2013
http://primanota.ru/my-dying-bride/santuario-di-sangue-chords.htm
Привет, Гость.
Предлагаем пройти революционный курс по гитаре.
Подарок от PrimaNota.Ru, забирай!