PrimaNota.ru - самый крупный в мире бесплатный архив песенных текстов, аккордов, табулатур и нот


MxPx - Sugar Coated Poison Apples - таба, видео

Регистрация Запомнить меня
Войти через:  Facebook Google Twitter Vk Yandex Mail.ru

MxPx - Sugar Coated Poison Apples - таба, видео

Печатать
Просмотров: 64
		   SONG:		   Sugar Coated Poisoned Apple
ARTIST:            MxPx
ALBUM:             Teenage Politics 
LYRICS WRITTEN BY: Mike Herrera
MUSIC WRITTEN BY:  MxPx     
TABBED BY:         (jgroh@tekchek.com) Joey Groh

Most the Chords are just Power Chords. Nothing fancy. Listen to 
the music while your tyring to follow the tab-it will help.
All the lyrics with the chords above them match up to the tab
parts above each section. The Chords are mostly major, but with
so much distortion, it doesn't really matter anyway!



Verse
      c    g    e    f    g     
E---------------------------
B---------------------------
G-----5---------------------
D-----5----5----2----3----5-
A-----3----5----2----3----5-
E----------3----0----1----3-

 c                    g
it eats at you i know, but it's so hard to let it go
 e                        f      g
let yourself go yah just let yourself go
c                            g                     
it consumes you can't you see that sin hates everybody
e                     f     g 
everybody, sin hates everybody



Part Before the Chorus
       c    g    e    f     g 
E------------------------------
B------------------------------
G------5---------9----10----12-
D------5----5----9----10----12-
A------3----5----7----8-----10-
E-----------3------------------

  c             g               e                 f        g 
even though i know the reasons why, it breaks me down i want to cry
  c             g                  e              f       g
i search for comfort in a friend, when will my troubles ever end?


Chorus

      c         f         e         f    g
E------------------------------------------
B------------------------------------------
G-----5------------------------------------
D-----5---------3---------2---------3----5-
A-----3---------3---------2---------3----5-
E---------------1---------0---------1----3-


   c                              f                          e
the sugarcoated poisoned apple tastes so good that you can't see
					f               g
the death and decay that's inside and what it's done to me
   c                              f                          e   
the sugarcoated poisoned apple tastes do good how could you know
                          f                g
its deciteful lies and where you're gonna go



       c       g   b   c        g   b    
E--------------------------------------
B--------------------------------------
G------5----------4----5------------4--
D------5------5---4----5--------5---4--
A------3------5---2----3--------5---2--
E-------------3-----------------3------

            c   g   b   c   g   b      
you won't know 

Repeat all, from beginning.

End
      c         f         e         f    g    c
E-----------------------------------------------
B-----------------------------------------------
G-----5---------------------------------------5-
D-----5---------3---------2---------3----5----5-
A-----3---------3---------2---------3----5----3-
E---------------1---------0---------1----3------





 

     
Добавлено: 07.08.2013
Другие материалы по этой песне:
  • Аккорды и текст

Страница создана 07.08.2013
http://primanota.ru/mxpx/sugar-coated-poison-apples-chords.htm
Привет, Гость.
Предлагаем пройти революционный курс по гитаре.
Подарок от PrimaNota.Ru, забирай!