PrimaNota.ru - самый крупный в мире бесплатный архив песенных текстов, аккордов, табулатур и нот


MxPx - Bass So Low - текст песни, таба, бас-таба, видео

Регистрация Запомнить меня
Войти через:  Facebook Google Twitter Vk Yandex Mail.ru

MxPx - Bass So Low - текст песни, таба, бас-таба, видео

Печатать
Просмотров: 117
Уроки эстрадного вокала в Санкт-Петербурге
-----------------------------------------------------------------------
			     Bass So Low - MxPx
-----------------------------------------------------------------------
Tabbed by: Hope1029 (Hope Thackray)
Email: hoppus98@hotmail.co.uk

Tuning: E A D G B e

Guitar comes in at 00:12

e|--------------------------------------------------------------------|
B|--------------------------------------------------------------------|
G|--------------------------------------------------------------------|
D|---4~---------------------------------------------------------------|
A|---4~---------------------------------------------------------------|
E|---2~---------------------------------------------------------------|

Intro

e|--------------------------------------------------------------------|
B|--------------------------------------------------------------------|
G|-----------------------4--4--444--6--6--6---------------------------|
D|---4--4--444--2--2--2--4--4--444--6--6--6---------------------------|
A|---4--4--444--2--2--2--2--2--222--4--4--4---------------------------|
E|---2--2--222--0--0--0-----------------------------------------------|

 Do this ^^^ x3 and then do this once;

e|--------------------------------------------------------------------|
B|--------------------------------------------------------------------|
G|-----------------------4--4--444--5--6~-----------------------------|
D|---4--4--444--2--2--2--4--4--444--5--6~-----------------------------|
A|---4--4--444--2--2--2--2--2--222--3--4~-----------------------------|
E|---2--2--222--0--0--0-----------------------------------------------|

Verse

e|--------------------------------------------------------------------|
B|--------------------------------------------------------------------|
G|-----------6--------2-----------------------------------------------|
D|---4-------6-x3-----2-x5-----2--------------------------------------|
A|---4-x5----4--------0--------2-x3-----------------------------------|
E|---2-------------------------0--------------------------------------|

Do this x4  ^^^

Chorus

Guitar 1 does this:

e|--------------------------------------------------------------------|
B|--------------------------------------------------------------------|
G|-----------2---------------7------6---------------------------------|
D|---4-------2-x16---2-------7-x8---6-x8------------------------------|
A|---4-x16---0-------2-x16---5------4---------------------------------|
E|---2---------------0------------------------------------------------|

Guitar 2 does this:

e|--------------------------------------------------------------------|
B|--------------------------------------------------------------------|
G|--10-11--9--9--9-10-11----14-11-x4--13-11-x4---end-on-11~-----------|
D|-------11-11-11-------x6--------------------------------------------|
A|--------------------------------------------------------------------|
E|--------------------------------------------------------------------|

(Eleven's not one's)

Back to Intro

e|--------------------------------------------------------------------|
B|--------------------------------------------------------------------|
G|-----------------------4--4--444--6--6--6---------------------------|
D|---4--4--444--2--2--2--4--4--444--6--6--6---------------------------|
A|---4--4--444--2--2--2--2--2--222--4--4--4---------------------------|
E|---2--2--222--0--0--0-----------------------------------------------|

 Do this ^^^ x3 and then do this once;

e|--------------------------------------------------------------------|
B|--------------------------------------------------------------------|
G|-----------------------4--4--444--5--6~-----------------------------|
D|---4--4--444--2--2--2--4--4--444--5--6~-----------------------------|
A|---4--4--444--2--2--2--2--2--222--3--4~-----------------------------|
E|---2--2--222--0--0--0-----------------------------------------------|

Verse 2

e|--------------------------------------------------------------------|
B|--------------------------------------------------------------------|
G|-----------6--------2-----------------------------------------------|
D|---4-------6-x3-----2-x5-----2--------------------------------------|
A|---4-x5----4--------0--------2-x3-----------------------------------|
E|---2-------------------------0--------------------------------------|

Do this x4  ^^^

Chorus

Guitar 1 does this:

e|--------------------------------------------------------------------|
B|--------------------------------------------------------------------|
G|-----------2---------------7------6---------------------------------|
D|---4-------2-x16---2-------7-x8---6-x8------------------------------|
A|---4-x16---0-------2-x16---5------4---------------------------------|
E|---2---------------0------------------------------------------------|

Guitar 2 does this:

e|--------------------------------------------------------------------|
B|--------------------------------------------------------------------|
G|---10-11--9--9--9-10-11----14-11-x4--13-11-x4---end-on-11~----------|
D|--------11-11-11-------x6-------------------------------------------|
A|--------------------------------------------------------------------|
E|--------------------------------------------------------------------|

(Eleven's not one's)

Intro again

e|--------------------------------------------------------------------|
B|--------------------------------------------------------------------|
G|-----------------------4--4--444--6--6--6---------------------------|
D|---4--4--444--2--2--2--4--4--444--6--6--6---------------------------|
A|---4--4--444--2--2--2--2--2--222--4--4--4---------------------------|
E|---2--2--222--0--0--0-----------------------------------------------|

 Do this ^^^ x4 this time!

Bridgey Bit Part 1:

Guitar 1:

e|--------------------------------------------------------------------|
B|--------------------------------------------------------------------|
G|--------------------------------------------------------------------|
D|---7-7-6-7-7-6-7-9-7-6-7--7-6-7-7-6-7-7-6-7-9-7-6-7-6---6-----------|
A|------------------------------------------------------9-------------|
E|--------------------------------------------------------------------|

Guitar 2:

e|--------------------------------------------------------------------|
B|--------------------------------------------------------------------|
G|---------7-----2----------------------------------------------------|
D|---4-----7-x8--2-x8--2----------------------------------------------|
A|---4-x8--5-----2-----2-x8-------------------------------------------|
E|---2-----------------0----------------------------------------------|

Play all this four times, but:

Guitar 3 comes in with this at 2:00 and plays it twice

e|--------------------------------------------------------------------|
B|--------------------------------------------------------------------|
G|---6-6-4-6-6-4-6-7-6-4-6--6-4-6-6-4-6-6-4-6-7-6-4-6-4---4-----------|
D|------------------------------------------------------7-------------|
A|--------------------------------------------------------------------|
E|--------------------------------------------------------------------|

Guitar 1 then plays this:

e|--------------------------------------------------------------------|
B|--------------------------------------------------------------------|
G|---7-7-------7-7-------9-9-9-9--------------------------------------|
D|---7-7--7-7--7-7--7-7--9-9-9-9--4-----------------------------------|
A|---5-5--7-7--5-5--7-7--7-7-7-7--4-x16-------------------------------|
E|--------5-5-------5-5-----------2-----------------------------------|

And while the Guitar 1 plays that ^^ bit 16 times, Guitar 2 does this:

e|--------------------------------------------------------------------|
B|--------------------------------------------------------------------|
G|--------------------------------------------------------------------|
D|---7-6-7-7-6-7-7-6-7-9-7-6-7-6---6----------------------------------|
A|-------------------------------9------------------------------------|
E|--------------------------------------------------------------------|

And Guitar 3 plays:

e|--------------------------------------------------------------------|
B|--------------------------------------------------------------------|
G|---6-4-6-6-4-6-6-4-6-7-6-4-6-4---4----------------------------------|
D|-------------------------------7------------------------------------|
A|--------------------------------------------------------------------|
E|--------------------------------------------------------------------|

Those three guitar bits are played twice in total and then it goes:

e|--------------------------------------------------------------------|
B|--------------------------------------------------------------------|
G|---7-----------7-----6----------------------------------------------|
D|---7-x8--4-----7-x8--6-x16------------------------------------------|
A|---5-----4-x8--5-----4----------------------------------------------|
E|---------2----------------------------------------------------------|

The next bit is cool:

e|--------------------------------------------------------------------|
B|--------------------------------------------------------------------|
G|-------------7------------------------------------------------------|
D|--4----2--4--7-x3--7-----2—-4-----2--4--5-5--5----------------------|
A|--4-x3-2--4--5-----7-x3--2--4-x3--2--4--5-5--5----------------------|
E|--2----0--2--------5-----0--2-----0--2--3-3--3----------------------|
                                          . . 
                                          ^^^ 

                                 These two are palm-muted

e|--------------------------------------------------------------------|
B|--------------------------------------------------------------------|
G|-------------7------------------------------------------------------|
D|--4----2--4--7-x3--7-----2—-4-----2--4-----5--5--5--4~--------------|
A|--4-x3-2--4--5-----7-x3--2--4-x3—-2--4-x3--5--5--5--4~--------------|
E|--2----0--2--------5-----0--2-----0--2-----3--3--3--2~--------------|
                                             .  .  . (Palm-mutes again)

Then there's the bass solo (Pun type thing I suppose!)

Guitar comes in at 3:01 with this bit x7

e|--------------------------------------------------------------------|
B|--------------------------------------------------------------------|
G|-----------------------4--4--444--6--6--6---------------------------|
D|---4--4--444--2--2--2--4--4--444--6--6--6---------------------------|
A|---4--4--444--2--2--2--2--2--222--4--4--4---------------------------|
E|---2--2--222--0--0--0-----------------------------------------------|

And ending on this once

e|--------------------------------------------------------------------|
B|--------------------------------------------------------------------|
G|-----------------------4--4--444--5--6~-----------------------------|
D|---4--4--444--2--2--2--4--4--444--5--6~-----------------------------|
A|---4--4--444--2--2--2--2--2--222--3--4~-----------------------------|
E|---2--2--222--0--0--0-----------------------------------------------|


I hope this tab is alright for you, I love this song!

=====
Key
=====

| /  slide up
| \  slide down
| h  hammer-on
| p  pull-off
| ~  vibrato
| +  harmonic
| x  Mute note
===============================================================================
Добавлено: 01.07.2013
Другие материалы по этой песне:
  • Аккорды и текст

Страница создана 16.04.2012
http://primanota.ru/mxpx/bass-so-low-chords.htm
Привет, Гость.
Предлагаем пройти революционный курс по гитаре.
Подарок от PrimaNota.Ru, забирай!