PrimaNota.ru - самый крупный в мире бесплатный архив песенных текстов, аккордов, табулатур и нот


MxPx - Youre The One I Miss - таба, видео

Регистрация Запомнить меня
Войти через:  Facebook Google Twitter Vk Yandex Mail.ru

MxPx - Youre The One I Miss - таба, видео

Печатать
Просмотров: 97
Уроки эстрадного вокала в Санкт-Петербурге
Song: You're the One I Miss (this Christmas)
Artist: MxPx
Tabbed by: Paul Assaad (pxpx47@hotmail.com)


Verse:
(E, C#, B) 2x, (A, B, C#), (A, B, C#, E, B)

Chorus: 
(E, C#, A, B)
During some of the choruses, the guitar part consists only of the E chord,
played as an arpeggio, and focusing primarily on the high notes.

Interlude:
(C#, A, B, E~Eb, C#, A, B)


Before and after each solo riff, play an E chord.

e|-3h2h0----------------------------------
B|------3h2h0-----3h2h0-------------------
G|-----------3h2h0-----3h2h0--------------
D|----------------------------------------
A|----------------------------------------
E|----------------------------------------

e|----------------------------------------
B|----------------------------------------
G|----------0-----------------------------
D|-------0h2------------------------------
A|----0h2---------------------------------
E|-0h3------------------------------------

e|----------------------------------------
B|----------------------------------------
G|-0--------------------------------------
D|--2h0-----------------------------------
A|-----2h0--------------------------------
E|--------3h0-----------------------------

e|-3h2h0---------------3h2h0--------------
B|------3h2h0-----3h2h0-------------------
G|-----------3h2h0------------------------
D|----------------------------------------
A|----------------------------------------
E|----------------------------------------


Awesome song. Any questions/comments- email me.

     
Добавлено: 02.07.2013
Другие материалы по этой песне:
  • Аккорды и текст

Страница создана 02.07.2013
http://primanota.ru/mxpx/youre-the-one-i-miss-chords.htm
Привет, Гость.
Предлагаем пройти революционный курс по гитаре.
Подарок от PrimaNota.Ru, забирай!