PrimaNota.ru - самый крупный в мире бесплатный архив песенных текстов, аккордов, табулатур и нот


MxPx - Small Towns Small Minds - таба, видео

Регистрация Запомнить меня
Войти через:  Facebook Google Twitter Vk Yandex Mail.ru

MxPx - Small Towns Small Minds - таба, видео

Печатать
Просмотров: 96
SMALL TOWNS SMALL MINDS - MXPX

Tabbed by Kris Holmes  wall_eye@hotmail.com

Intro: A# chord 
e-----------------------
B-----------------------
G----------------------- part a  x8
D-8888----8888xxxx(66)--
A-8888----8888xxxx(44)--
E-6666----6666xxxx------

then muted

A# / C# / G# / D# / D#\E D# C# /
e-------------------------------------
B-------------------------------------
G-------------------------------------
D--------6666666-------8888/986------- part b x2
A-8888888444444466666666666/764-------
E-6666666-------4444444---------------

then faster

A# C# / G# D#ED#C# /
e--------------------------------------
B--------------------------------------
G--------------------------------------  part c x4
D---66--8/986--------------------------
A-8844666/764--------------------------
E-66--44-------------------------------

VERSE: over part c x4

CHORUS:
A# C# / A# D#ED#C# /
e----------------------
B----------------------
G----------------------  x 4
D-----66----8/986------
A-88--44--886/764------
E-66------66-----------

then

A# D#C# / A# D#C# / A# D#C# / G# D#ED#C# /
e-------------------------
B-------------------------
G-------------------------
D----86---86---86-8/986---  x 2
A-88864888648886466/764---
E-666--666--666--4--------

section 2

A# chord hit twice

Break
e--------------------------------------------------------------------
B--------------------------------------------------9-----------------
G---------8--------------------------------8---------11-10-8-10-11---
D-8-10-11---11-10-8-10-11----10-11-8-10-11---11-10-------------------
A-------------------------11-----------------------------------------
E--------------------------------------------------------------------

then

A# / F# / C# / G# /
e--------------------
B--------------------
G-------------------- x 4
D---------666--------
A-888-444-444-666----
E-666-222-----444----

then

A# C# / D#ED# / F#FD#C# / A# C# / D# F#FD#C# /
e-----------------------------------------------------
B-----------------------------------------------------
G-----------------------------------------------------
D-------66666-8/98-11986-------66666-88888-11986------
A-88888-44444-6/76-9-764-88888-44444-66666-9-764------
E-66666------------------66666------------------------

then this twice

e---------------------------------
B---------------------------------
G---------------------------------
D---6-------6-------6------8-11---
A-8-4-8-6-8-4-8-6-8-4-8-6--6-9----
E-6---6-4-6---6-4-6---6-4---------

then to A# chord

last figure
e-----------------
B-----------------
G-----------------
D-----6-----------
A-444-4-6-8-------
E-222---4-6-------

Then go back to break and repeat all of section 2.
Repeat last figure 4 times for ending.
Добавлено: 28.07.2012
Другие материалы по этой песне:
  • Аккорды и текст

Страница создана 28.07.2012
http://primanota.ru/mxpx/small-towns-small-minds-chords.htm
Привет, Гость.
Предлагаем пройти революционный курс по гитаре.
Подарок от PrimaNota.Ru, забирай!