PrimaNota.ru - самый крупный в мире бесплатный архив песенных текстов, аккордов, табулатур и нот


MxPx - Song About Nothing - бас-таба, видео

Регистрация Запомнить меня
Войти через:  Facebook Google Twitter Vk Yandex Mail.ru

MxPx - Song About Nothing - бас-таба, видео

Печатать
Просмотров: 98
-------------------------------------------------------
SONG ABOUT NOTHING (EXTRA TRACK) – MXPX – SECRET WEAPON
-------------------------------------------------------

Tabbed By: kstar19
E-mail: gophered@hotmail.com

Tuning: normal

Song starts at 4:42
Bass starts at 4:58

G|----------------------------------------------------|
D|----2-----------------2-0---0-------------------0-2-|
A|0-4---555---555-----------2---2-0-2-------0-2-4-----|
E|---------555----555-0---------------0-2-4-----------|

G|----------------------------------------------|
D|----------------2-0---0-------------------0-2-|
A|555---555-----------2---2-0-2-------0-2-4-----|
E|---555----555-0---------------0-2-4-----------|


G|-----------------------------|
D|-----------------------------|
A|------5-57-7--------5555-----|
E|5-55-5------55555555----4444-|


G|-----------------------------|
D|-----------------------------|
A|------5-54-47777777777777777-|
E|5-55-5-----------------------|

G|----------------------------------------------|
D|----------------2-0---0-------------------0-2-|
A|555---555-----------2---2-0-2-------0-2-4-----|
E|---555----555-0---------------0-2-4-----------|

G|----------------------------------------------|
D|----------------2-0---0-------------------0-2-|
A|555---555-----------2---2-0-2-------0-2-4-----|
E|---555----555-0---------------0-2-4-----------|

G|----------------------------|
D|----------------------------|
A|------5-57-7----------------|
E|5-55-5------5555555555555-4-|


G|------------------------------------|
D|------------------------------------|
A|44444444-55555555----------77777777-|
E|------------------55555555----------|


G|---------------------------------------------------|
D|------------------333333333333-5-------------------|
A|44444444-55555555----------------------------------|
E|---------------------------------5555555555 softly-|


G|-----------------------------|
D|-----------------------------|
A|------5-57-7--------5555-----|
E|5-55-5------55555555----4444-|


G|-----------------------------|
D|-----------------------------|
A|------5-54-47777777777777777-|
E|5-55-5-----------------------|



G|--------------|
D|--------------|
A|------5-5-----|
E|5-55-5---4-45-|


This song is awesome.  You can figure out the timings.  Have fun.
Добавлено: 06.07.2012
Другие материалы по этой песне:
  • Аккорды и текст

Страница создана 06.07.2012
http://primanota.ru/mxpx/song-about-nothing-chords.htm
Привет, Гость.
Предлагаем пройти революционный курс по гитаре.
Подарок от PrimaNota.Ru, забирай!