PrimaNota.ru - самый крупный в мире бесплатный архив песенных текстов, аккордов, табулатур и нот


MxPx - Punk Rawk Christmas - таба, видео

Регистрация Запомнить меня
Войти через:  Facebook Google Twitter Vk Yandex Mail.ru

MxPx - Punk Rawk Christmas - таба, видео

Печатать
Просмотров: 76
-------------------------------------------------------------------------------
                             PUNK RAWK CHRISTMAS - MXPX
-------------------------------------------------------------------------------
Tabbed by:RUCUSBOY

Tuning: Standard

CHORUS
     D   A   E          NA NA NA PART
e|------------------|-------------------------------|
B|------------------|---------------9~-----9~-------|
G|---7-------9------|---7-------9-----9~-----9~-----|
D|---7---7---9------|---7---7---9-------------------|
A|---5---7---7------|---5---7---7-------------------|
E|-------5----------|-------5-----------------------|

VERSE
e|--------------------------------------------------|
B|--------------------------------------------------|
G|------7-----7-----7-----9-------------------------|
D|---7--7--7--7--7--7--7--9-------------------------|
A|---7--5--7--5--7--5--7--7-------------------------|
E|---5-----5-----5-----5----------------------------|
   pm-----------------------

other part

When you get no sleep...
e|--------------------------------------------|
B|--------------------------------------------|
G|-------7-------9----------------------------| x2
D|---7---7---9---9----------------------------|
A|---7---5---9---7----------------------------|
E|---5-------7--------------------------------|


Na na na na, na na na na
Na na na na, na na na na

You're on a budget, no denaro in the bank
You're on a budget, no more gas in the tank
But you're gifted with so much to give and so little to live on

Punk rawk Christmas,
tell me where you've been like a junkie in the alley, like a bad girlfriend
I haven't seen you around it's been almost a year
Punk rawk Christmas
come spread your cheer

Na na na na, na na na na

You ride the bus now just to get down town
You ride the bus now living on the west side
You've been kicked around, it's time to kick back,
We're slipping through the cracks

Punk rawk Christmas,
tell me where you've been like a junkie in the alley, like a bad girlfriend
I haven't seen you around it's been almost a year
Punk rawk Christmas
come spread your cheer

Na na na na, na na na na

Come spread your cheer

Na na na na, na na na na

When you get no sleep, day or night, your thoughts just grieve, wrong or right
When there's no more time, the end is near, I hope to see you here

Punk rawk Christmas,
tell me where you've been like a junkie in the alley, like a bad girlfriend
I haven't seen you around it's been almost a year
Punk rawk Christmas
come spread your cheer

Na na na na, na na na na

Come spread your cheer

Na na na na, na na na na

Na na na na, na na na na
Na na na na, na na na na
Na na na na, na na na na
Na na na na, na na na na

Na na na na, na na na na
Na na na na, na na na na

Punk rawk Christmas,
tell me where you've been like a junkie in the alley, like a bad girlfriend
I haven't seen you around it's been almost a year
Punk rawk Christmas
come spread your cheer.

Na na na na, na na na na

Come spread your cheer
Добавлено: 17.09.2013
Другие материалы по этой песне:
  • Аккорды и текст

Страница создана 17.09.2013
http://primanota.ru/mxpx/punk-rawk-christmas-chords.htm
Привет, Гость.
Предлагаем пройти революционный курс по гитаре.
Подарок от PrimaNota.Ru, забирай!