PrimaNota.ru - самый крупный в мире бесплатный архив песенных текстов, аккордов, табулатур и нот


MxPx - 10 Things I Hate About You - таба, видео

Регистрация Запомнить меня
Войти через:  Facebook Google Twitter Vk Yandex Mail.ru

MxPx - 10 Things I Hate About You - таба, видео

Печатать
Просмотров: 81
i dont know if it's the real name but i found it like this.
hope you like my tab

|---------------------------------------------------|
|---------------------------------------------------|
|----77-66-77----77-66-77-----77-66-77-----77-66-77-| x2
|-------------55-----------77-----------55----------|
|-55------------------------------------------------|
|---------------------------------------------------|

then

|----|
|----|
|-7~-|
|-7~-|
|-5~-|
|----|

intro                           
|------------------------|        |----|
|------------------------|        |----|
|-7777-------------------|        |-7~-|  let it ring 'till the 2nd part
|-7777-4444-33xx-3333-55-| x2     |-7~-|   of the verse
|-5555-4444-33xx-3333-55-|        |-5~-|
|------2222-55xx-5555-77-|        |----|

2nd part

|----------------|
|----------------|
|---7---xx-7-----|
|--7-7--xx-7-x16-|
|-------xx-5-----|
|----------------|

repeat the intro and the verse

the chorus is exactly the same as the intro

then just play something like this before the verse

|------|
|------|
|---7--|
|-/7-7-|
|------|
|------|

the outro is pretty simple 
|--------------------------------|
|--------------------------------|
|---7-7--------------------------|
|--7-7-7----4-4-----5-5-----7-7--|x2
|-5--------4-4-4---5-5-5---7-7-7-|
|---------2-------3-------5------|


|-------------------------------------|
|-------------------------------------|
|-xx-7--------------------------------|
|-xx-7-x4--xx-4-----xx-5-----xx-7-----|
|-xx-5-----xx-4-x4--xx-5-x4--xx-7-x4--|
|----------xx-2-----xx-3-----xx-5-----|



and also if you dont have a trumpet you can play it with your guitar

|--------------------|--------------|
|--------------------|--------------|
|--99-7-12-10-9-7-x3-|-99-7-5--5-7--| x4
|--------------------|-------5------|
|--------------------|--------------|
|--------------------|--------------|

this is all the song any mistakes you know my mail jpunk_lavc13@hotmai.com
bye
Добавлено: 25.08.2013
Другие материалы по этой песне:
  • Аккорды и текст

Страница создана 25.08.2013
http://primanota.ru/mxpx/10-things-i-hate-about-you-chords.htm
Привет, Гость.
Предлагаем пройти революционный курс по гитаре.
Подарок от PrimaNota.Ru, забирай!