PrimaNota.ru - самый крупный в мире бесплатный архив песенных текстов, аккордов, табулатур и нот


Municipal Waste - Boner City - таба, видео

Регистрация Запомнить меня
Войти через:  Facebook Google Twitter Vk Yandex Mail.ru

Municipal Waste - Boner City - таба, видео

Печатать
Просмотров: 111
Уроки эстрадного вокала в Санкт-Петербурге
Municipal Waste - Boner City
The Art Of Partying (2007)
Tabbed by ruker
Standard Tuning EADGBE

--------------
Key:
--------------
.   Palm Mute
b   Bend
r   Release
ph  Pinch Harmonic
/   Slide Up
\   Slide Down
--------------


Intro (0:00)
||--------------------------------------||
||--------------------------------------||
||-------------------------------5------||
||-7-5-7---7-5-7---7-5-7-----------7-5--||
||-5-3-5---5-3-5---5-3-5---7-5-7--------||
||--------------------------------------||


Chorus (0:03)
||----------------------------------------------------------------------------------|
||----------------------------------------------------------------------------------|
||----------------------------------------------------------------------------------|
||-7\------------------------------5---------------7---9----------------------------|
||-----7-7-7-7-7-7-7-7-7-7-7-7-7-7-3---7-7-7-7-7-7-5---7-7-7-7-7-7-5---5-5-5-5-5-5--|
||-----5-5-5-5-5-5-5-5-5-5-5-5-5-5-----5-5-5-5-5-5-------5-5-5-5-5-3---3-3-3-3-3-3--|
       . . . . . . . . . . . . . .       . . . . .       . . . . .     . . . . . .

|----------------------------------------------------------------------------------||
|----------------------------------------------------------------------------------||
|----------------------------------------------------------------------------------||
|-----------------5---------------7---9--------------------------------------------||
|-5-5-5-5-5-5-5-5-3---7-7-7-7-7-7-5---7-7-7-7-7-7-5---5-5-5-5-5-5-5-5-5-5-5-7-5----||
|-3-3-3-3-3-3-3-3-----5-5-5-5-5-5-------5-5-5-5-5-3---3-3-3-3-3-3-3-3-3-3-3-5-3----||
  . . . . . . . .       . . . . .       . . . . .     . . . . . . . . . . . 

Verse (0:18)
||------------------------------------------------------------------|
||------------------------------------------------------------------|
||------------------------------------------------------------------|
||------------------------------------------------------------------|
||-2---2-2-2-2-2-2-2-2-2-2-2-7-5---2---2-2-2-2-2-2-2-2-2-2-2-7-5----|
||-0---0-0-0-0-0-0-0-0-0-0-0-5-3---0---0-0-0-0-0-0-0-0-0-0-0-5-3----|
       . . . . . . . . . . .           . . . . . . . . . . .

|------------------------------------------------------------------||
|------------------------------------------------------------------||
|-----------------------------------------------------------5------||
|-5---5-5-5-------7---7-7-7-----------------------------------7-5--||
|-3---3-3-3-7-5---5---5-5-5-7-5---2---2-2-2-2-2-2-2-2-7-5-7--------||
|-----------5-3-------------5-3---0---0-0-0-0-0-0-0-0--------------||
                                      . . . . . . . .

Solo (0:29)
||-----------------------------------------------------------------------------------------|
||-----------------------------------------------------------------------------------------|
||-5-------------------------------------7-----------7-9-7--------------------12----12-14--|
||-ph--7-7---7---7-5---7-7---7-5-7-9---9---9---9-7-9-------9-7-9-9/14---12-14----14--------|
||-------ph--------------------------------------------------------------------------------|
||-----------------------------------------------------------------------------------------|


|---------------------------------------------------------------------------||
|-------------------------12---121214-121215-121214-12----------------------||
|-14-14-12-14-12---------------------------------------14-12-14-12----------||
|----------------14-12-14---------------------------------ph-------14-12\---||
|---------------------------------------------------------------------12\---||
|---------------------------------------------------------------------------||


Chorus (0:41)
||------------------------------------------------------------------|
||------------------------------------------------------------------|
||------------------------------------------------------------------|
||-5---------------7---9--------------------------------------------|
||-3---7-7-7-7-7-7-5---7-7-7-7-7-7-5---5-5-5-5-5-5-5-5-5-5-5-5-5-5--|
||-----5-5-5-5-5-5-------5-5-5-5-5-3---3-3-3-3-3-3-3-3-3-3-3-3-3-3--|
         . .   . .       . .   . .     . . . . . . . . . . . . . .

|------------------------------------------------------------------|
|------------------------------------------------------------------|
|------------------------------------------------------------------|
|-5---------------7---9-------------------------------------3-5-5--|
|-3---7-7-7-7-7-7-5---7-7-7-7-7-7-5---5-5-5-5-5-5-5-5-5-3-5--------|
|-----5-5-5-5-5-5-------5-5-5-5-5-3---3-3-3-3-3-3-3-3--------------|
        . .   . .       . .   . .     . . . . . . . .

|----------------------------------------------------------------|
|----------------------------------------------------------------|
|-5--------------------------------------------------------------|
|-ph--7-7---7---7-5---7-7-7-7-5----------------------------------|
|-------------------------------7-5---5-5-5-5-5-5-5-5-5-5-5-5-5--|
|---------------------------------3---3-3-3-3-3-3-3-3-3-3-3-3-3--|
                                      . . . . . . . . . . . . .

|------------------------------------------------------------------||
|------------------------------------------------------------------||
|------------------------------------------------------------------||
|-5---------------7---9--------------------------------------------||
|-3---7-7-7-7-7-7-5---7-7-7-7-7-7-5---5-5-5-5-5-5-5-5---3---3---3--||
|-----5-5-5-5-5-5-------5-5-5-5-5-3---3-3-3-3-3-3-3-3-5---5---5----||
        . .   . .       . .   . .     . . . . . . . .

Outro (1:04)
||-------------------------------------------------------||
||-------------------------------------------------------||
||---------------------------5---------------------------||
||-----------------------5-7---7-5-7b-------r------------||
||-5---5-3-5---5-3-5---5-----------ph---------7--7\------||
||--------------------------------------------5--5\------||
Добавлено: 22.10.2013
Другие материалы по этой песне:

Страница создана 17.09.2013
http://primanota.ru/municipal-waste/boner-city-chords.htm
Привет, Гость.
Предлагаем пройти революционный курс по гитаре.
Подарок от PrimaNota.Ru, забирай!