PrimaNota.ru - самый крупный в мире бесплатный архив песенных текстов, аккордов, табулатур и нот


Motorama - Red Drop - бас-таба, видео

Регистрация Запомнить меня
Войти через:  Facebook Google Twitter Vk Yandex Mail.ru

Motorama - Red Drop - бас-таба, видео

Печатать
Просмотров: 214
-------------------------------------------------------------------------------
                             RED DROP - MOTORAMA
-------------------------------------------------------------------------------
Tabbed by: BranxBass
E-mail: brandon_magadan.o@hotmail.com

Intro x2 (0:11)

G|---------------------------------------|
D|--------------4-4----------------------|
A|-----6--6-6---------4-4-4-4--4-4-4-----| X 3
E|---------------------------------------|

G|------6-----------------------------------|
D|---------6--6---8-8-8-8----6-6-6----------|
A|---4--------------------------------------| 
E|------------------------------------------|


Verse (0:33)

G|---------------------------------------|
D|--------------4-4----------------------|
A|-----6--6-6---------4-4-4-4--4-4-4-----| X 3
E|---------------------------------------|

G|------6-----------------------------------|
D|---------6--6---8-8-8-8----6-6-6----------|
A|---4--------------------------------------| 
E|------------------------------------------|

G|---------------------------------------|
D|--------------4-4----------------------|
A|-----6--6-6---------4-4-4-4--4-4-4-----| X 3
E|---------------------------------------|

G|------6-----------------------------------|
D|---------6--6---8-8-8-8----6-6-6----------|
A|---4--------------------------------------| 
E|------------------------------------------|


Coro x3(0:55)

G|---------------------------------------|
D|--------------4-4----------------------|
A|-----6--6-6---------4-4-4-4--4-4-4-----| X 3
E|---------------------------------------|

G|------6-----------------------------------|
D|---------6--6---8-8-8-8----6-6-6----------|
A|---4--------------------------------------| 
E|------------------------------------------|

G|---------------------------------------|
D|--------------4-4----------------------|
A|-----6--6-6---------4-4-4-4--4-4-4-----| X 3
E|---------------------------------------|

G|------6-----------------------------------|
D|---------6--6---8-8-8-8----6-6-6----------|
A|---4--------------------------------------| 
E|------------------------------------------|


Bass Solo (2:01)

G|--------------------------------------------------------------------------
D|-------4-4--6-6--4-4-4-4-4-4--------------4-4--6-6--8-8-8-8-8-8-----------
A|-6-6-6------------------------------6-6-6---------------------------------
E|--------------------------------------------------------------------------

------------------------------------------------------------------------|
---6-6-6--8-8--11-11--8-8-8-8-8-8--------6-6-6--8-8--11-11--8-8-8-8-8-8-|
------------------------------------------------------------------------| 
------------------------------------------------------------------------|


G|------------------------6-6-6-------------------------------6-6-6---------
D|---------4-4--6-6--8-8-----------------------4-4--6-6--8-8----------------
A|--6-6-6-------------------------------6-6-6-------------------------------
E|--------------------------------------------------------------------------

--------------------------6-6-6-------------------------------------------|
-----------4-4--6-6--8-8------------8-8-8-8-8-8-8-8-8-8-8-8-8-8-8-8-8-8---|
----6-6-6-----------------------------------------------------------------| 
--------------------------------------------------------------------------|


Coro x3  (2:23)

G|---------------------------------------|
D|--------------4-4----------------------|
A|-----6--6-6---------4-4-4-4--4-4-4-----| X 3
E|---------------------------------------|

G|------6-----------------------------------|
D|---------6--6---8-8-8-8----6-6-6----------|
A|---4--------------------------------------| 
E|------------------------------------------|

G|---------------------------------------|
D|--------------4-4----------------------|
A|-----6--6-6---------4-4-4-4--4-4-4-----| X 3
E|---------------------------------------|

G|------6-----------------------------------|
D|---------6--6---8-8-8-8----6-6-6----------|
A|---4--------------------------------------|      End Note ...
E|------------------------------------------|   





| /  slide up
| \  slide down
| h  hammer-on
| p  pull-off
| ~  vibrato
| +  harmonic
| x  Mute note
===============================================================================
Добавлено: 24.05.2016
Другие материалы по этой песне:
  • Аккорды и текст

Страница создана 24.05.2016
http://primanota.ru/motorama/red-drop-chords.htm
Привет, Гость.
Предлагаем пройти революционный курс по гитаре.
Подарок от PrimaNota.Ru, забирай!