PrimaNota.ru - самый крупный в мире бесплатный архив песенных текстов, аккордов, табулатур и нот


Motorama - Far Away From The City - текст песни, таба, бас-таба, видео

Регистрация Запомнить меня
Войти через:  Facebook Google Twitter Vk Yandex Mail.ru

Motorama - Far Away From The City - текст песни, таба, бас-таба, видео

Печатать
Просмотров: 310
Motorama - Far Away From The City
Track 2 from the "Empty Bed" release (2011).

There are only 3 chords being used:
F minor // F7sus2 // B-flat minor

Tabbed by Isaac Murguia, January 2015.
Originally uploaded to Ultimate-Guitar.com
Contact: www.youtube.com/user/Goadiroth

INTRO:      
              [x2]                   [x4]
e|-----------------------------|--------------|
B|----9--------9-----8-------8-|---8------8---|
G|------10-------------8-------|-----8--------|
D|-10-------10----10------10---|-8------8-----|
A|-----------------------------|--------------|
E|-----------------------------|--------------|

CHORUS:
  Lead          [x3]
e|---------------------------------|--------------------|
B|-13-13--9-11-11/13--14--14-14-14-|-13-13--9-11-9-9-99-|
G|---------------------------------|--------------------|
D|---------------------------------|--------------------|
A|---------------------------------|--------------------|
E|---------------------------------|--------------------| [x2]
  Rhythm
   F-minor               F7sus2
e|-8---8--8---8--8--8--|-8---8--8---8--8--8--|
B|-9---9--9---9--9--9--|-8---8--8---8--8--8--|
G|-10--10-10--10-10-10-|-8---8--8---8--8--8--|
D|-10--10-10--10-10-10-|-10--10-10--10-10-10-|
A|-8---8--8---8--8--8--|-8---8--8---8--8--8--|
E|---------------------|---------------------| [x8]

VERSE:
  Rhythm (listen to song for strumming patterns)
                       B-flat minor
e|-8----8----8----8--|-6----6----6----6---|-8----8----8----8--|-8----8----8----8--|
B|-9----8----9----8--|-6----6----6----6---|-9----8----9----8--|-9----8----9----8--|
G|-10---8----10---8--|-6----6----6----6---|-10---8----10---8--|-10---8----10---8--|
D|-10---10---10---10-|-8----8----8----8---|-10---10---10---10-|-10---10---10---10-|
A|-8----8----8----8--|-8----8----8----8---|-8----8----8----8--|-8----8----8----8--|
E|-------------------|-6----6----6----6---|-------------------|-------------------|
  Lead
e|----------------------------------------|------far-away-from-the-city-----------|
B|--now-i-want-to-be-buried---------------|---------far-away-from-the-dust--------|
G|-------now-i-want-to-be-buried----------|---------------------------------------|
D|----------------------------------------|-13-11-10------------13-11-10----------|
A|-11-13-13--11-13-13--11-13-13--11-13-13-|----------13-11-11------------13-11-11-|
E|----------------------------------------|---------------------------------------|

Repeat VERSE
Repeat CHORUS

OUTRO A:
  Lead        [x2]                   [x4]                   [x4]
e|-----------------------------|--------------|-----------------------------|
B|----9--------9-----8-------8-|---8------8---|----9--------9-----8-------8-|
G|------10-------------8-------|-----8--------|------10-------------8-------|
D|-10-------10----10------10---|-8------8-----|-10-------10----10------10---|
A|-----------------------------|--------------|-----------------------------|
E|-----------------------------|--------------|-----------------------------|
  Rhythm        [x4]
e|---------------------------------|-8----8----8----8--|-8----8----8----8--|
B|---------------------------------|-9----8----9----8--|-9----8----9----8--|
G|-x--x-x--x-x-x----x--x-x--x-x-x--|-10---8----10---8--|-10---8----10---8--|
D|-x--x-x--x-x-x----x--x-x--x-x-x--|-10---10---10---10-|-10---10---10---10-|
A|-x--x-x--x-x-x----x--x-x--x-x-x--|-8----8----8----8--|-8----8----8----8--|
E|-x--x-x--x-x-x----x--x-x--x-x-x--|-------------------|-------------------|

OUTRO B:
  Lead        [x2]                   [x4]                   [x4]
e|-----------------------------|--------------|-----------------------------|
B|----9--------9-----8-------8-|---8------8---|----9--------9-----8-------8-|
G|------10-------------8-------|-----8--------|------10-------------8-------|
D|-10-------10----10------10---|-8------8-----|-10-------10----10------10---|
A|-----------------------------|--------------|-----------------------------|
E|-----------------------------|--------------|-----------------------------|
  Rhythm
e|-8----8----8----8--|-6----6----6----6---|-8----8----8----8--|-8----8----8----8--|
B|-9----8----9----8--|-6----6----6----6---|-9----8----9----8--|-9----8----9----8--|
G|-10---8----10---8--|-6----6----6----6---|-10---8----10---8--|-10---8----10---8--|
D|-10---10---10---10-|-8----8----8----8---|-10---10---10---10-|-10---10---10---10-|
A|-8----8----8----8--|-8----8----8----8---|-8----8----8----8--|-8----8----8----8--|
E|-------------------|-6----6----6----6---|-------------------|-------------------|

Repeat OUTRO B [x2]

End. Please rate! :D
Добавлено: 25.07.2015
Другие материалы по этой песне:

Страница создана 08.07.2013
http://primanota.ru/motorama/far-away-from-the-city-chords.htm
Привет, Гость.
Предлагаем пройти революционный курс по гитаре.
Подарок от PrimaNota.Ru, забирай!