PrimaNota.ru - самый крупный в мире бесплатный архив песенных текстов, аккордов, табулатур и нот


Motorama - Ghost - аккорды и текст, видео

Регистрация Запомнить меня
Войти через:  Facebook Google Twitter Vk Yandex Mail.ru

Motorama - Ghost - аккорды и текст, видео

Печатать
Просмотров: 246
Ghost
Motorama
Standard Tuning
Capo 4
Key B
Intro riff:
e|---------------------------------------------------------------------------|
B|---------------------------------------------------------------------------|
G|---------------------------------------------------------------------------|
D|---------------------------------------------------------------------------|
A|---------------------------------------------------------------------------|
E|-/7--5-7--5-7------/7--5-7--5-7-------/9---5-5---3-3-------/9---5-5---3-3--|

e|---------------------------------------------------------------------------|
B|---------------------------------------------------------------------------|
G|---------------------------------------------------------------------------|
D|---------------------------------------------------------------------------|
A|---------------------------------------------------------------------------|
E|-/7--5-7--5-7--/7--5-7--5-7--/7--5-7--5-7--/7--5-7--5-7--------------------|
play whole riff 2 times


Verse:
  C7M              Am7
My hopes, my will
                     G
Were never a part of you
     C7M                 Am7
Those days were sad and cold,
                     G
I'll never want them back again


Chorus:
C7M  
But in this moment we are close to each other again
            Am7
It's like a merge of different colors
In a silver mountain lake
        G
And I'm home again
          C7M  
It's like dancing in the room with a female ghost
          Am7
It's like falling from the edge
                           G
To the bed with cold clean pillow


Verse:
     C7M                Am7
Your voice, is pure and soft
                           G
It's calling me back to my hopes
   C7M                 Am7
My ears were deaf and cold
                             G
Please hold me tight in your arms again


Chorus:
C7M  
But in this moment we are close to each other again
            Am7
It's like a merge of different colors
In a silver mountain lake
        G
And I'm home again
          C7M  
It's like dancing in the room with a female ghost
          Am7
It's like falling from the edge
                           G
To the bed with cold clean pillow


Chorus riff:

e|-------------------------|
B|-3-3-1-1-0-0-----3-3-1-0-|
G|-------------0-0---------|
D|-------------------------|
A|-------------------------|
E|-------------------------|
just repeat



Ending:
C7M   Am7 G
Добавлено: 24.05.2016
Другие материалы по этой песне:

Страница создана 08.04.2012
http://primanota.ru/motorama/ghost-chords.htm
Привет, Гость.
Предлагаем пройти революционный курс по гитаре.
Подарок от PrimaNota.Ru, забирай!