PrimaNota.ru - самый крупный в мире бесплатный архив песенных текстов, аккордов, табулатур и нот


Monkees - Never Tell a Woman Yes - текст песни, бас-таба, видео

Регистрация Запомнить меня
Войти через:  Facebook Google Twitter Vk Yandex Mail.ru

Monkees - Never Tell a Woman Yes - текст песни, бас-таба, видео

Печатать
Просмотров: 58
Уроки эстрадного вокала в Санкт-Петербурге
Tabbed by: 6METAL6BASSIST6
E-mail: petergriffinav@gmail.com

Tuning: 1/4 step up.

G|------------------------------------------/-5-----|
D|--------------------------------------------------|
A|--------------------------------------------------|
E|--------------------------------------------------|

G|------------------------------------------------------------------------------------------------|
D|------------5-----------------------9-----------7-----------------------7-----------------------|
A|3-----------------------3---/-------------------------------7-----------------------7-----6-----|
E|------------------------------------------------------------------------------------------------|

G|------------------------------------------------------9---------10------11--------12------------|
D|------------4-----------5-----------7-----9-----10----------------------------------------12----|
A|5-----------------------------------------------------------------------------------------------|
E|------------------------------------------------------------------------------------------------|

G|------------------------------------------------------------------------------------------------|
D|10----------------------------------9-----------7-----------------------7-----------------------|
A|------------10--\-------7-----------------------------------7-----------------------2-----4-----|
E|------------------------------------------------------------------------------------------------|

G|------------------------------------------------------------------------------------------------|
D|------------4-----------5-----------------------------2-----3-----4-----5-----7-----9-----------|
A|5-----------------------------------5---------5-3-----------------------------------------------|
E|------------------------------------------------------------------------------------------------|

0:21

G|------------------------------------------------------------------------------------------------|
D|------------5-----------------------5-----------7-----------------------7---------7-------------|
A|3-----------------------3-----------------------------------7-----------------------7-----------|
E|------------------------------------------------------------------------------------------------|

G|------------------------------------------------------------------------------------------------|
D|------------------------5-----------------------------------2---------3-------4-----5-----------|
A|8-----------3-----------------------5-----------3-----------------------------------------5-----|
E|------------------------------------------------------------------------------------------------|

G|------------------------------------------------------------------------------------------------|
D|------------5-----------------------5-----------7-----------------------7---------7-------------|
A|3-----------------------3-----------------------------------7-----------------------7-----------|
E|------------------------------------------------------------------------------------------------|

G|------------------------------------------------------------------------------------------------|
D|------------------------5-----------------------------------5-----------------------5-----------|
A|8-----------3-----------------------5-----------3-----------------------3---------------------3/|
E|------------------------------------------------------------------------------------------------|

0:40

G|------------------------------------------------------------------------------------------9-----|
D|------------4-----4-----5-----5-----6-----6-----7-----7-----9-----9-----10----11----12----------|
A|7-----7-----------------------------------------------------------------------------------------|
E|------------------------------------------------------------------------------------------------|

G|10------------------------------------------------------------------------------------12--------|
D|------------10----------7-----------------------------9-----10------11--------12----------------|
A|------------------------------------8---------8/10----------------------------------------------|
E|------------------------------------------------------------------------------------------------|

G|------------------------------------------------------------------------------------------------|
D|10----------------------10----------9-----8-----7-----------------------7-----------------------|
A|------------10----------------------------------------------7-----------------------7-----------|
E|------------------------------------------------------------------------------------------------|

G|------------------------------------------------------------------------------------------------|
D|------------------------5-----------------------------2-----3-----3---4-----4-5-----3-----2-----|
A|8-----------3-----------------------5-----------3-----------------------------------------------|
E|------------------------------------------------------------------------------------------------|

0:59

G|------------------------------------------------------------------------------------------------|
D|------------5-----------------------5-----------7-----------------------7-----------------------|
A|3-----------------------3-----------------------------------7-----------------------7-----------|
E|------------------------------------------------------------------------------------------------|

G|------------------------------------------------5-----------------------------------------------|
D|------------------------5-----------------------------2-----3-----3---4-----4-5-----3-----2-----|
A|8-----------3-----------------------5-----------------------------------------------------------|
E|------------------------------------------------------------------------------------------------|

G|------------------------------------------------------------------------------------------------|
D|------------5-----------------------5-----------7-----------------------7-----------------------|
A|3-----------------------3-----------------------------------7-----------------------7-----------|
E|------------------------------------------------------------------------------------------------|

G|------------------------------------------------5-----------------------------------------------|
D|------------------------5-----------------------------------5---------3-------2-----------------|
A|8-----------3-----------------------5-----------------------------------------------------3---/-|
E|------------------------------------------------------------------------------------------------|

1:17

G|------------------------------------------------------------------------------------------------|
D|------------4-----4---5-----5-6-----------6-----7-----7---------------7-----7-------7-----------|
A|7-----7-----------------------------7-----------------------7-----7-----------7-----------7-----|
E|------------------------------------------------------------------------------------------------|

G|-------------------------------------------10/12------10---------9------------------------------|
D|------------7-----------10----------------------------------------------12--------9-------------|
A|8-----------------------------------8-----------------------------------------------------10----|
E|------------------------------------------------------------------------------------------------|

G|------------------------------------------------------------------------------------------------|
D|10----------------------10----------9-----8-----7-----------------------7-----------------------|
A|------------10----------------------------------------------7-----------------------7-----------|
E|------------------------------------------------------------------------------------------------|

G|------------------------------------------------------------------------------------5-----------|
D|------------------------5-----------------------------2-----3-----3---4-------5-----------5-----|
A|8-----------3-----------------------5-----------3-----------------------------------------------|
E|------------------------------------------------------------------------------------------------|

1:37

G|------------------------------------------------------------------------------------------------|
D|------------5-----------------------5-----6-----7-----------------------7-----------------------|
A|3-----------------------3-----------------------------------7-----------------------7-----------|
E|------------------------------------------------------------------------------------------------|

G|------------------------------------------------5-----------------------------------------------|
D|------------------------5-----------------------------5-----3-----2---------2-3-----4-----5-----|
A|8-----------3-----------------------5---------------------------------3-------------------------|
E|------------------------------------------------------------------------------------------------|

G|------------------------------------------------------------------------------------------------|
D|------------5-----------------------5-----------7-----------------------7-----------------------|
A|3-----------------------3-----------------------------------7-----------------------7-----------|
E|------------------------------------------------------------------------------------------------|

G|----------------------------------------------------------------------5-------------------------|
D|------------------------5-----------------------------------5-----------------5-----2-----------|
A|8-----------3-----------------------5-----------3-----------------------------------------3---/-|
E|------------------------------------------------------------------------------------------------|

1:54

G|------------------------------------------------------------------------------------------------|
D|------------4-----5---6-----6-------6-----------7---------------------7-----7-------7-----------|
A|7-----7-----------------------7-----------------------------7-----------------7-----------7-----|
E|------------------------------------------------------------------------------------------------|

G|------------------------------------------------12--------11------10--------9-------------------|
D|------------10----------------------10----------------------------------------------12----11----|
A|8-----------------------8-----------------------------------------------------------------------|
E|------------------------------------------------------------------------------------------------|

G|------------------------------------------------------------------------------------------------|
D|10----------------------10----------9-----8-----7-----------------------7-----------------------|
A|------------10----------------------------------------------7-----------------------7-----------|
E|------------------------------------------------------------------------------------------------|

G|------------------------------------------------------------------------------------------------|
D|------------------------5-----------------------------------5-----------------2-----3-----5-----|
A|8-----------3-----------------------5-----------3-----------------------3-----------------------|
E|------------------------------------------------------------------------------------------------|

2:11

G|------------------------------------------------------------------------------------------------|
D|------------5-----------------------5-----------7-----------------------7-----------------------|
A|3-----------------------3-----------------------------------7-----------------------7-----------|
E|------------------------------------------------------------------------------------------------|

G|------------------------------------------------5-----------------------------------------------|
D|------------------------5---------------------------5---------4-------3-------2---------5-------|
A|8-----------3-----------------------5-----------------------------------------------------------|
E|------------------------------------------------------------------------------------------------|

G|------------------------------------------------------------------------------------------------|
D|------------5-----------------------5-----------7-----------------------7-----------------------|
A|3-----------------------3-----------------------------------7-----------------------7-----------|
E|------------------------------------------------------------------------------------------------|

G|----------------------------------------------------------------------5-------------------------|
D|------------------------5-----------------------------2-----3-----5-----------5-----2-----------|
A|8-----------3-----------------------5-----------3-----------------------------------------3---/-|
E|------------------------------------------------------------------------------------------------|

2:31

G|------------------------------------------------------------------------------------------------|
D|------------4-----4-----5-----5-----6-----6-----7-----7-----9-----9-----10----10----12----12----|
A|7-----7-----------------------------------------------------------------------------------------|
E|------------------------------------------------------------------------------------------------|

G|10----10----------------------------------------------12--------------12--------------12--------|
D|------------10----10--8-----8-7-----------7-----------------12--------------12------------------|
A|------------------------------------8-----------10----------------10----------------------------|
E|------------------------------------------------------------------------------------------------|

G|------------------------------------------------------------------------------------------------|
D|10----------------------10----------9-----------7-----------------------7-----------7-----------|
A|------------10----------------------------------------------7-----------------------------------|
E|------------------------------------------------------------------------------------------------|

G|------------------------------------------------------------------------------3-----4-----5-----|
D|------------------------5-----------------------------2-----3-----4-----5-----------------------|
A|8-----------3-----------------------5-----------3-----------------------------------------------|
E|------------------------------------------------------------------------------------------------|

2:48

G|------------------------------------------------------------------------------------------------|
D|------------5-----------------------5-----------7-----------------------7-----------------------|
A|3-----------------------3-----------------------------------7-----------------------7-----------|
E|------------------------------------------------------------------------------------------------|

G|------------------------------------------------------------------------------------------------|
D|------------------------5-----------------------------------2-----------3---------4-------5-----|
A|8-----------3-----------------------5-----------3-----------------------------------------------|
E|------------------------------------------------------------------------------------------------|

G|------------------------------------------------------------------------------------------------|
D|------------5-----------------------5-----------7-----------------------7-----------------------|
A|3-----------------------3-----------------------------------7-----------------------7-----------|
E|------------------------------------------------------------------------------------------------|

G|----------------------------------------------------5-4-----2-----------------------------------|
D|------------------------5-----------------------------------------5---3-----3-2-----------------|
A|8-----------3-----------------------5-----------------------------------------------5-----3---/-|
E|------------------------------------------------------------------------------------------------|

3:08

G|------------------------------------------------------------------------------------------------|
D|------------------------------------------6-----7-----------------------7-----------------------|
A|7-----7-----------------7-----7-----9-----------------------7-----------------------7-----------|
E|------------7-----7-----------------------------------------------------------------------------|

G|------------------------------------------------------------------------------------------------|
D|------------------------------------------------5---------6-------7---------8-------9-----12----|
A|8-----------3-----------8-----------3-----------------------------------------------------------|
E|------------------------------------------------------------------------------------------------|

G|------------------------------------------------------------------------------------------------|
D|10----------------------10----------------------7-----------------------7-----------------------|
A|------------10----------------------10----------------------7-----------------------7-----------|
E|------------------------------------------------------------------------------------------------|

G|------------------------------------------------------------------------------------------------|
D|------------------------5-----------------------------------5-----------------------------------|
A|8-----------3-----------------------5-----------3-----------------------3-----------3-----------|
E|------------------------------------------------------------------------------------------------|

3:26

G|------------------------------------------------------------------------------------------------|
D|------------------------------------------------------------------------------------------------|
A|------------------------------------------------------------------------------------------------|
E|------------------------------------------------------------------------------------------------|

G|------------------------------------------5-----------------------------------------------------|
D|----------2-------3---------4-------5-----------------------------------------------------------|
A|3---3-3---------3-------3---------3-------------------------------------------------------------|
E|------------------------------------------------------------------------------------------------|

G|----------------------------------------------------------------------------------5-|
D|------------4-----4-----5-----5-----------------------2-----3-----4-----5-----------|
A|5-----5-----------------------------5-----5-----3-----------------------------------|
E|------------------------------------------------------------------------------------|



************************************

| /  Slide up
| \  Slide down

************************************
Добавлено: 13.10.2017
Другие материалы по этой песне:
  • Аккорды и текст

Страница создана 09.09.2013
http://primanota.ru/monkees/never-tell-a-woman-yes-chords.htm
Привет, Гость.
Предлагаем пройти революционный курс по гитаре.
Подарок от PrimaNota.Ru, забирай!