PrimaNota.ru - самый крупный в мире бесплатный архив песенных текстов, аккордов, табулатур и нот


Monkees - Love is Only Sleeping - текст песни, бас-таба, видео

Регистрация Запомнить меня
Войти через:  Facebook Google Twitter Vk Yandex Mail.ru

Monkees - Love is Only Sleeping - текст песни, бас-таба, видео

Печатать
Просмотров: 116
Tabbed by: 6METAL6BASSIST6
E-mail: petergriffinav@gmail.com

Tuning: EADG

0:03

G|--------------------------------------------------------|
D|--------------------------------------------------------|
A|5-----------5-----------5-----------5-----------5-------|
E|--------------------------------------------------------|

G|--------------------------------------------------------|
D|--------------------------------------------------------|
A|--------------------------------------------------------|
E|--------------------------------------------------------|

G|----7-----------5-----------4---------------------------|
D|7-----------7-----------7-----------5---7---------------| x4
A|------------------------------------------------5-------|
E|--------------------------------------------------------|

G|----------------------------------------------------------------|
D|5-----------5---5---5-------3-------------------------------3---|
A|--------------------------------5-----------5---5---5-----------|
E|----------------------------------------------------------------|

G|----------------------------------------------------------------|
D|5-----------5---5---5-------3-----------------------------------|
A|--------------------------------5-----------5---5---5-------4---|
E|----------------------------------------------------------------|

G|----------------------------------------------------------------|
D|----------------------------------------------------------------|
A|3-----------3---3---------------3-----------3---3-----------3---|
E|----------------------------------------------------------------|

G|--------------------------------------------------------|
D|--------------------------------------------------------|
A|5-------5-------5-------5-------5-------5---------------|
E|--------------------------------------------------------|

0:36

G|--------------------------------------------------------|
D|--------------------------------------------------------|
A|--------------------------------------------------------|
E|--------------------------------------------------------|

G|----7-----------5-----------4---------------------------|
D|7-----------7-----------7-----------5---7---------------| x4
A|------------------------------------------------5-------|
E|--------------------------------------------------------|

G|----------------------------------------7---4-------------------|
D|5-----------5---5---5-------3-----------------------7---4-------|
A|--------------------------------5---------------------------5---|
E|----------------------------------------------------------------|

G|--------------------------------------------7-------4-----------|
D|5-----------2-------------------------------------------7-------|
A|--------------------5---2-------5-------------------------------|
E|----------------------------3-----------------------------------|

G|----------------------------------------------------------------|
D|----------------------------------------------------------------|
A|3-----------3---3---------------3-----------3---3-----------3---|
E|----------------------------------------------------------------|

G|----------------------------------------------------------------|
D|----------------------------------------------------------------|
A|5---5---5---5---5---5---5---5---5---5---5---5---5---5---5---5---|
E|----------------------------------------------------------------|

1:05

G|----------------------------------------------------------------|
D|----------------------------------------------------------------|
A|5---5---5---5---5---5---5---5---5---5---5---5---5---5---5---5---|
E|----------------------------------------------------------------|

G|----------------------------------------------------------------|
D|----------------------------------------------------------------|
A|5---5---5---5---5---5---5---5---5---5---5---5---5---5---5---3---|
E|----------------------------------------------------------------|

G|----------------------------------------------------------------|
D|----------------------------------------------------------------|
A|------------------------------------------------------------3---|
E|3---3---3---3---3---3---3---3---3---3---3---3---3---3---3-------|

G|----------------------------------------------------------------|
D|----------------------------------------------------------------|
A|5---5---5---5---5---5---5---5---5---5---5---5---5---5---5---4---|
E|----------------------------------------------------------------|

G|----------------------------------------------------------------|
D|----------------------------------------------------------------|
A|3---3---3---3---3---3---3---3---3---3---3---3---3---3---3---3---|
E|----------------------------------------------------------------|

G|----------------------------------------------------------------|
D|----------------------------------------------------------------|
A|5---5---5---5---5---5---5---5---5---5---5---5---5---5---5-------|
E|----------------------------------------------------------------|

1:26

G|--------------------------------------------------------|
D|--------------------------------------------------------|
A|--------------------------------------------------------|
E|--------------------------------------------------------|

G|--------------------------------------------------------|
D|--------------------------------------------------------|
A|--------------------------------------------------------|
E|--------------------------------------------------------|

G|----7-----------5-----------4---------------------------|
D|7-----------7-----------7-----------5---7---------------| x4
A|------------------------------------------------5-------|
E|--------------------------------------------------------|

G|--------------------------------------------7-------4-----------|
D|5-----------5---5---5-------3---------------------------7-------|
A|--------------------------------5---------------------------5---|
E|----------------------------------------------------------------|

G|--------------------------------------------7-------4-----------|
D|5-----------2-------------------------------------------7---4---|
A|--------------------5---2-------5-------------------------------|
E|----------------------------3-----------------------------------|

G|----------------------------------------------------------------|
D|----------------------------------------------------------------|
A|3-----------3---3---------------3-----------3---3-----------3---|
E|----------------------------------------------------------------|

G|----------------------------------------------------------------|
D|----------------------------------------------------------------|
A|5-------5---5---5---5---5---5---5---5---5---5---5---5---5-------|
E|----------------------------------------------------------------|

G|----------------------------------------------------------------|
D|----------------------------------------------------------------|
A|3-----------3---3---------------3-----------3---3-----------3---|
E|----------------------------------------------------------------|

G|--------------------------------------------------------|
D|--------------------------------------------------------|
A|5-------5-------5-------5-------5-------5-------5-------|
E|--------------------------------------------------------|

2:05

G|----7-----------5-----------4---------------------------|
D|7-----------7-----------7-----------5---7---------------| x6
A|------------------------------------------------5-------|
E|--------------------------------------------------------|
Добавлено: 28.05.2015
Другие материалы по этой песне:
  • Аккорды и текст

Страница создана 09.03.2012
http://primanota.ru/monkees/love-is-only-sleeping-chords.htm
Привет, Гость.
Предлагаем пройти революционный курс по гитаре.
Подарок от PrimaNota.Ru, забирай!