PrimaNota.ru - самый крупный в мире бесплатный архив песенных текстов, аккордов, табулатур и нот


Monkees - Salesman - текст песни, бас-таба, видео

Регистрация Запомнить меня
Войти через:  Facebook Google Twitter Vk Yandex Mail.ru

Monkees - Salesman - текст песни, бас-таба, видео

Печатать
Просмотров: 95
Tabbed by: 6METAL6BASSIST6
E-mail: petergriffinav@gmail.com

Tuning: EADG

G|----------------------/-9-------/-9-----7-----------------------------/-9-------/-9-----7-------|
D|----------/-9-----------------------------9---------------/-9-----------------------------9-----| x3
A|7-----------------------------------------------7-----------------------------------------------|
E|------------------------------------------------------------------------------------------------|

G|------------------------------------------------------------------------------------------------|
D|7-----------------------7-------/-7-----5-----------------------------/-7-----------------------|
A|------------7-----------------------------7-----------------7---------------------5-5-----6-----|
E|------------------------------------------------5-----------------------------------------------|

G|----------------------/-9-------/-9-----7-----------------------------/-9-------/-9-----7-------|
D|----------/-9-----------------------------9---------------/-9-----------------------------7-----|
A|7-----------------------------------------------7-----------------------------------------------|
E|------------------------------------------------------------------------------------------------|

G|------------------------------------------------------------------9-----------12----------------|
D|9---------------------/-9-------/-9-----7-------7-----------------------------------------------|
A|------------9-----------------------------9-----------------7-----------10----------------------|
E|------------------------------------------------------------------------------------------------|

G|----------------------------------------------/-9-------/-9-------------------------------------|
D|------------------5---------------/-9-----------------------------7-/---9-----9-----9-----9-----|
A|------------5-----------7-----------------------------------------------------------------------|
E|------7-----------------------------------------------------------------------------------------|

G|------------------------|
D|9-----9-----------------|
A|------------5-----6-----|
E|------------------------|

0:37

G|----------------------/-9-------/-9-----7-----------------------------/-9-------/-9-----7-------|
D|----------/-9-----------------------------9---------------/-9-----------------------------9-----| x2
A|7-----------------------------------------------7-----------------------------------------------|
E|------------------------------------------------------------------------------------------------|

G|------------------------------------------------------------------------------------------------|
D|7---------------------/-7-------/-7-----5-----------------------------/-7-------/-7-------------|
A|------------7-----------------------------7---------------/-7-----------------------------5-----|
E|------------------------------------------------5-----------------------------------------------|

G|----------------------/-9-------/-9-----7-----------------------------/-9-------/-9-----7-------|
D|----------/-9-----------------------------9---------------/-9-----------------------------7-----|
A|7-----------------------------------------------7-----------------------------------------------|
E|------------------------------------------------------------------------------------------------|

G|------------------------------------------------------------------------------12----------------|
D|9---------------------/-9-------/-9-----7-------7-----------------------------------------------|
A|------------9-----------------------------9-----------------7-----------10----------------------|
E|------------------------------------------------------------------------------------------------|

G|----------------------------------------------/-9-------/-9-------------------------------------|
D|------------------5---------------/-9-----------------------------7-/---9-----9-----9-----9-----|
A|------------5-----------7-----------------------------------------------------------------------|
E|------7-----------------------------------------------------------------------------------------|

G|----------------|
D|9---9---9-------|
A|------------9-\-|
E|----------------|

1:08

G|------------------------------------------------------------------------------------------------|
D|------------------------------------------------------------------------------------------------|
A|4-----4-----------2-----4-----4-----------2-----4-----4-----------2-----4-----4-----------2-----|
E|------------4-----------------------4-----------------------4-----------------------4-----------|

G|------------------------------------------------------------------------4-----4-----4-----4-----|
D|------------------------------------------------4-----4-----4-----4-----------------------------|
A|4-----4-----------2-----4-----4-----------2-----------------------------------------------------|
E|------------4-----------------------4-----------------------------------------------------------|

G|4-----4-----4-----4-----4-----4-----4-----4-----4-----4-----------------------------------------|
D|------------------------------------------------------------6---4-------------------------------|
A|------------------------------------------------------------------6-----2-----2-----2-----2-----|
E|------------------------------------------------------------------------------------------------|

G|------------------------4-----4-----4-----4-----4-----4-----------------------------------------|
D|------------------4-6---------------------------------------6---4-------------------------------|
A|2-----2-----4-6---------------------------------------------------6-----2-----2-----2-----2-----|
E|------------------------------------------------------------------------------------------------|

G|------------------------|
D|------------------------|
A|2-----2-----5-----6-----|
E|------------------------|

1:30

G|----------------------/-9-------/-9-----7-----------------------------/-9-------/-9-----7-------|
D|----------/-9-----------------------------9---------------/-9-----------------------------9-----| x2
A|7-----------------------------------------------7-----------------------------------------------|
E|------------------------------------------------------------------------------------------------|

G|------------------------------------------------------------------------------------------------|
D|7---------------------/-7-------/-7-----5-----------------------------/-7-------/-7-------------|
A|------------7-----------------------------7-----------------7-----------------------------5-----|
E|------------------------------------------------5-----------------------------------------------|

G|----------------------/-9-------/-9-----7-----------------------------/-9-------/-9-------------|
D|----------/-9-----------------------------9---------------/-9-----------------------------7-/---|
A|7-----------------------------------------------7-----------------------------------------------|
E|------------------------------------------------------------------------------------------------|

G|------------------------------------------------------------------------------12----------------|
D|9---------------------/-9-------/-9-----7-------7-----------------------------------------------|
A|------------9-----------------------------9-----------------7-----------10----------------------|
E|------------------------------------------------------------------------------------------------|

G|----------------------------------------------/-9-------/-9-------------------------------------|
D|------------------5---------------/-9-----------------------------7-/---9-----9-----9-----9-----|
A|------------5-----------7-----------------------------------------------------------------------|
E|------7-----------------------------------------------------------------------------------------|

G|------------------------------------------------------------------------------------------------|
D|9-----------------------------------------------------------------------------------------------|
A|------------------------------------------------------------------------------------------------|
E|------------------------------------------------------------------------------------------------|

G|------------------------|
D|------------------------|
A|------------------------|
E|------------------7-----|

2:07

G|----------------------/-9-------/-9-----7-----------------------------/-9-------/-9-----7-------|
D|----------/-9-----------------------------9---------------/-9-----------------------------9-----|
A|7-----------------------------------------------7-----------------------------------------------|
E|------------------------------------------------------------------------------------------------|

G|----------------------/-9---------7-----------------------------------------------------------------|
D|----------/-9---------------------------9---7---5---------------------------------------------------|
A|7-------------------------------------------------------------------------/-7-------/-7-----5-------|
E|----------------------------------------------------0---------/-7-----------------------------7-----|

G|------------------------------------------------------------------------------------------------|
D|------------------------------------------------------------------------------------------------|
A|----------------------/-7-------/-7-----5-----------------------------/-7-------/-7-----5-------|
E|0---------/-7-----------------------------7-----0---------/-7-----------------------------7-----|

G|------------------------------------------------------------------------------------------------|
D|------------------------------------------------------------------------------------------------|
A|----------------------/-7-------/-7-----5-----------------------------5h7-------/-7-----5-------|
E|0---------/-7-----------------------------7-----0---------/-7-----------------------------7-----|

G|----------------------/-9-------/-9-----7-----------------------------/-9-------/-9-----7-------|
D|----------/-9-----------------------------9---------------/-9-----------------------------9-----| to fadeout.
A|7-----------------------------------------------7-----------------------------------------------|
E|------------------------------------------------------------------------------------------------|
Добавлено: 02.03.2016
Другие материалы по этой песне:
  • Аккорды и текст

Страница создана 24.02.2012
http://primanota.ru/monkees/salesman-chords.htm
Привет, Гость.
Предлагаем пройти революционный курс по гитаре.
Подарок от PrimaNota.Ru, забирай!