PrimaNota.ru - самый крупный в мире бесплатный архив песенных текстов, аккордов, табулатур и нот


Monkees - Me Without You - текст песни, бас-таба, перевод, видео

Регистрация Запомнить меня
Войти через:  Facebook Google Twitter Vk Yandex Mail.ru

Monkees - Me Without You - текст песни, бас-таба, перевод, видео

Печатать
Просмотров: 49
Уроки эстрадного вокала в Санкт-Петербурге
Tabbed by: 6METAL6BASSIST6
E-mail: petergriffinav@gmail.com

Tuning: EADG

G|------------------------------------------------|
D|------------------------------------------------|
A|------------------------------------------------|
E|------------------------------------------------|

G|------------------------------------------------------------------------------------------------|
D|10--------10----------10------------------7---------------------7-9-----10----------------------|
A|------------10----------8-----------8---10------10----------10----------------------------------|
E|----------------------------------8-----------------------10------------------8-----------------|

G|------------------------------------------------------------------------------------------------|
D|12--------12------12--------------------7-9-----10--------------------------------------7-9---9-|
A|------------12----------10----------10----------------------------------10----10----10----------|
E|----------------------------------10------------------8-----8-----8---8-----------10------------|

0:20

G|------------------------------------------------------------------------------------------------|
D|10--------10------------10----10----------10----12--------12----------12------------------------|
A|------------10--------10----10------10--------10------------12--------------7-9-----12----------|
E|------------------------------------------------------------------------10----------------10----|

G|------------------------12----12----------------------------------------------------------------|
D|------------12--------------12----------7-9-----10--------------------------------------7-9-----|
A|10--------10----------10------------10----------------------------------10----10----10----------|
E|------------------------------------------------------8-----8-----8---8-----10------------------|

0:35

G|------------------------------------------------------------------------------------------------|
D|10--------10------------10----10----------10----12--------12------------12----------------------|
A|------------10--------10----10------10----------------------12--------12----12------7-----9-----|
E|------------------------------------------------------------------------------10----------------|

G|------------------------12----12----------------------------------------------------------------|
D|------------12--------------12------12----12----10----------------------------------------------|
A|10--------10----------10----------------10------------------11----------10----------------------|
E|------------------------------------------------------------------------------------------------|

0:50

G|------------------------------------------------------------------------------------------------|
D|10--------10------10----------------------7---------------------7-9-----10----------------------|
A|------------10----------8---------7h8---10----8-10----------10----------------------------------|
E|----------------------------------------------------------10------------------8-----------------|

G|------------------------------------------------------------------------------------------------------|
D|12--------12------12--------------------7-9-----10--------------------------------------------7-9-----|
A|------------12----------10----------10----------------------------------------10----10----10--------10|
E|----------------------------------10------------------8-----8-----8-----8---8-----10------------------|

1:07

G|------------------------------------------------------------------------------------------------|
D|10----10----10----10----10----10----10----10----12----12----12----12----12----------------------|
A|----------10----------10----------10----10----10----------12----------12----12------7-----9-----|
E|------------------------------------------------------------------------------10----------------|

G|----------------------12------------------------------------------------------------------------|
D|----------12----------------------12----7-9-----10--------------------------------------7-9-----|
A|10----10----10----10----10----10----10----------------------------------10----10----10----------|
E|------------------------------------------------------8-----8-----8---8-----10------------------|

1:22

G|------------------------------------------------------------------------------------------------|
D|10----10----10----10----10----10----------10----12----12----12----12----12----------------------|
A|----------10----------10----10------10--------10----------12----------12----12------7-----9-----|
E|------------------------------------------------------------------------------10----------------|

G|----------------------12----------------------------12------------------------------------------|
D|----------12----------------------12----7-9-----10----10--------13------------------------------|
A|10----10----10----10----10----10----10----------------------11----11----10----------------------|
E|------------------------------------------------------------------------------------------------|

1:37

G|------------------------------------------------------------------------------------------------|
D|10----10----10----------------------------7---------------------7-9-----10----------------------|
A|----------10----10----7-8-----8-----8---10----8-10----10----10----------------------------------|
E|------------------10----------------------------------------------------------8-----------------|

G|------------------------------------------------------------------------------------------------|
D|12--------12------12--------------7-9-----------------------------------10----------------------|
A|------------12----------10----------------10----8-8-8-8-8-8-8-8-8-8-8-8-------------------------|
E|------------------------------------------------------------------------------8-----------------|

1:53

G|------------------------------------------------------------------------------------------------|
D|12--------12------12--------------7-9---10-12---------------------------------------------------|
A|------------12----------10----------------------8-8-8-8-8-8-8-8-8-8-8-8-------------------------|
E|------------------------------------------------------------------------8-----8-----------------|

G|------------------------------------------------10----10----10----10----------------|
D|12--------------------------7-9-----12----------------------------------10----------|
A|------------7-----9-----10----------------10------8-8---8-8---8-8---8-8-------------|
E|----------10------------------------------------------------------------------8-----|
Добавлено: 25.06.2017
Другие материалы по этой песне:
  • Аккорды и текст

Страница создана 14.03.2012
http://primanota.ru/monkees/me-without-you-chords.htm
Привет, Гость.
Предлагаем пройти революционный курс по гитаре.
Подарок от PrimaNota.Ru, забирай!