PrimaNota.ru - самый крупный в мире бесплатный архив песенных текстов, аккордов, табулатур и нот


Monkees - If I Knew - текст песни, бас-таба, видео

Регистрация Запомнить меня
Войти через:  Facebook Google Twitter Vk Yandex Mail.ru

Monkees - If I Knew - текст песни, бас-таба, видео

Печатать
Просмотров: 36
Уроки эстрадного вокала в Санкт-Петербурге
Tabbed by: 6METAL6BASSIST6
E-mail: petergriffinav@gmail.com

Tuning: EADG

0:09

G|------------------------------------------------6---------------|
D|--------------------------------------------6-------6-----------|
A|----------------2---------------4-----------------------4-------|
E|5---------------------------------------------------------------|

G|--------------------------------------------6-------------------|
D|6---------------------------------------------------6-----------|
A|------------6-------------------4-----------------------7---4---|
E|----------------4-----------------------------------------------|

G|--------------------------------7-------------------------------|
D|------------7---------------7-----------------------------------|
A|5---------------------------------------5---------------5---/---|
E|----------------------------------------------------------------|

G|----------------9-------11----------9---------------------------|
D|--------11----------11------------------11--9-------7-----------|
A|9-------------------------------------------------------9-\-----|
E|----------------------------------------------------------------|

G|----------------------------------------------------------------|
D|--------------------------------4-------------------------------|
A|2-----------2---2-----------2-----------------------------------|
E|----------------------------------------2-----------------------|

G|--------------------------------|
D|--------------------------------|
A|--------------------------------|
E|--------------------------------|

0:34

G|------------------------------------------------6---------------|
D|--------------------------------------------6-------6-----------|
A|----------------2-----------2---4-----------------------4-------|
E|5---------------------------------------------------------------|

G|--------------------------------------------6-------------------|
D|----------------6-----------------------------------6-----------|
A|------------6-------------------4-----------------------7---4---|
E|4---------------------------------------------------------------|

G|--------------------7-----------7-------------------------------|
D|------------7---------------7-------7---------------------------|
A|5---------------------------------------5---------------5---/---|
E|----------------------------------------------------------------|

G|----------------9-------11----------9---------------------------|
D|--------11----------11------------------11--9-------7-----------|
A|9-------------------------------------------------------9-\-----|
E|----------------------------------------------------------------|

G|----------------------------------------------------------------|
D|--------------------------------4-----------4---4-----------4---|
A|2-----------2---2-----------2-----------------------------------|
E|----------------------------------------------------------------|

G|--------------------------------|
D|4---4---4---4---4---4---4---4---|
A|--------------------------------|
E|--------------------------------|

0:58

G|----------------------------------------------------------------|
D|----------------------------------------------------------------|
A|2---2-------2---2---2-------2---4---4-------4---4---4-------4---|
E|----------------------------------------------------------------|

G|----------------------------------------------------------------|
D|------------------------------------2-------4-------------------|
A|--------------------2-------4-----------------------------------|
E|2-----------5---------------------------------------5-------5---|

G|--------------------------------------------------------6-------|
D|----------------------------------------------------6-------6---|
A|2---2-------2---2---2-------2---4-------6---8-------------------|
E|----------------------------------------------------------------|

G|7-------------------------------7---\---4-----------------------|
D|------------7---------------------------------------------------|
A|----------------------------------------------------------------|
E|------------------------------------------------0---------------|

G|----------------------------------------------------------------|
D|----------------------------------------------------------------|
A|----------------------------------------------------------------|
E|----------------------------------------------------------------|

G|----------------------------------------------------------------|
D|----------------------------------------------------------------|
A|----------------------------------------------------------------|
E|----------------------------------------------------------------|

1:25

G|------------------------------------------------6---------------|
D|--------------------------------------------6-------6-----------|
A|----------------2-----------2---4-----------------------4-------|
E|5---------------------------------------------------------------|

G|--------------------------------------------6-------------------|
D|----------------6-----------------------------------6-----------|
A|------------6-------------------4-----------------------7---4---|
E|4---------------------------------------------------------------|

G|--------------------7-----------7-------------------------------|
D|------------7---------------7-------7---------------------------|
A|5---------------------------------------5---------------5---/---|
E|----------------------------------------------------------------|

G|----------------9-------11----------9---------------------------|
D|--------11----------11------------------11--9-------7-----------|
A|9-------------------------------------------------------9-\-----|
E|----------------------------------------------------------------|

G|----------------------------------------------------------------|
D|----------------------------------------------------------------|
A|2-----------2---2---2-------2-----------------------------------|
E|--------------------------------2---------------2---------------|

G|----------------11--------------|
D|--------------------------------|
A|--------------------------------|
E|2-------------------------------|

1:50

G|----------------------------------------------------------------|
D|----------------------------------------------------------------|
A|2---2-------2---2---2-------2---4---4-------4---4---4-------4---|
E|----------------------------------------------------------------|

G|----------------------------------------------------------------|
D|------------------------------------2-------4-------------------|
A|--------------------2-------4-----------------------------------|
E|2-------5---5---------------------------------------5-------5---|

G|--------------------------------------------------------6-------|
D|----------------------------------------------------6-------6---|
A|2---2-------2---2---2-------2---4-------6---8-------------------|
E|----------------------------------------------------------------|

G|7-------------------------------7---\---4-----------------------|
D|------------7---------------------------------------------------|
A|----------------5-----------------------------------------------|
E|------------------------------------------------0---------------|

G|----------------------------------------------------------------|
D|----------------------------------------------------------------|
A|----------------------------------------------------------------|
E|----------------------------------------------------------------|

G|--------------------------------------------------------7-------|
D|----------------------------------------------------------------|
A|----------------------------------------------------------------|
E|----------------------------------------------------------------|
Добавлено: 26.10.2017
Другие материалы по этой песне:
  • Аккорды и текст

Страница создана 29.08.2013
http://primanota.ru/monkees/if-i-knew-chords.htm
Привет, Гость.
Предлагаем пройти революционный курс по гитаре.
Подарок от PrimaNota.Ru, забирай!