PrimaNota.ru - самый крупный в мире бесплатный архив песенных текстов, аккордов, табулатур и нот


Monkees - Storybook of You - текст песни, бас-таба, видео

Регистрация Запомнить меня
Войти через:  Facebook Google Twitter Vk Yandex Mail.ru

Monkees - Storybook of You - текст песни, бас-таба, видео

Печатать
Просмотров: 18
Уроки эстрадного вокала в Санкт-Петербурге
Tabbed by: 6METAL6BASSIST6
E-mail: petergriffinav@gmail.com

Tuning: EADG

0:08

G|------------------------------------------------------------------------------------------------|
D|------------------------10----------------------8-----------------------------------------------|
A|8-----------------------------------------------------------------------8---------------\-------|
E|------------------------------------------------------------------------------------------------|

G|------------------------------------------------------------------------------------------------|
D|------------------------5-----------------------3-----------------------------------------------|
A|3-----------------------------------------------------------------------3-----------------------|
E|------------------------------------------------------------------------------------------------|

0:24

G|------------------------------------------------------------------------------------------------|
D|3-----------------------3-------5-------7-------8-----------------------------------------------|
A|------------------------------------------------------------------------8-----------------------|
E|------------------------------------------------------------------------------------------------|

G|------------------------------------------------------------------------------------------------|
D|------------------------5-----------------------3-----------------------5/10----10--------------|
A|3-----------------------------------------------------------------------------------10------10--|
E|----------------------------------------------------------------------------------------8-------|

0:38

G|------------------------------------------------------------------------------------------------|
D|------------------------------------------------8-----------------------8-----------------------|
A|8-----------------------8-------------------8-----------------------8---------------8-----------|
E|--------------------8---------------------------------------------------------------------------|

G|------------------------------------------------------------------------------------------------|
D|--------------------5---------------------------3-----------------------3-----------------------|
A|3-----------------------3-------------------3-----------------------3-----------------------3---|
E|------------------------------------------------------------------------------------------------|

0:54

G|------------------------------------------------------------------------------------------------|
D|3-----------3-----------3-------5-------7-------8-----------------------8-----------------------|
A|--------------------------------------------------------------------8---------------8-----------|
E|------------------------------------------------------------------------------------------------|

G|------------------------------------------------------------------------------------------------|
D|--------------------5---------------------------3-----------------------3-----------3-----------|
A|3-----------------------3-------------------3-----------------------3---------------------------|
E|------------------------------------------------------------------------------------------------|

1:08

G|------------------------------------------------------------------------------------------------|
D|3-------3---------------3-------3-------3-------------------------------------------------------|
A|----------------3-------------------3-----------3-------3---------------3-------3---------------|
E|----------------------------------------------------------------3-------------3---3/5-----------|

G|------------------------------------------------------------------------------------------------|
D|------------------------------------------------3-------3-------3-------3-------3-------3-------|
A|3/6---------6-----------3-------3---3-----------------3---3/5-------3---------3---3/5-------3---|
E|------------------------------3---------3-------------------------------------------------------|

1:23

G|------------------------------------------------------------------------------------------------|
D|3-----------3-----------3-------5-------7-------8-----------------8-----8-------8---------------|
A|--------------------------------------------------------------------8---------8-----8-----------|
E|----------------------------------------------------------------------------------------6-------|

G|------------------------------------------------------------------------------------------------|
D|------------------------------------------------3-------3-------3---3---------------------------|
A|3-----3-3---------------3-------3-------3-------------------3-----------4-------4-------4---4---|
E|----------------3-------------3---3/5-------3---------------------------------------4-----------|

1:38

G|------------------------------------------------------------------------------------------------|
D|4-----------------------------------------------------------------------------------------------|
A|------------4-----------------------1-----------2-----------1-----------------------------------|
E|------------------------2-----------------------------------------------4-----------2-----------|

G|------------------------------------------------------------------------------------------------|
D|------------3-----------------------3-----------4-----------------------------------------------|
A|4-----------------------4-----------------------------------4-----------1-----------4-----------|
E|------------------------------------------------------------------------------------------------|

1:53

G|------------------------------------------------------------------------------------------------|
D|1/4---------4-----------4-----------------------------------------------------------4-----------|
A|--------------------------------4---------------2-----------------------2-----------------------|
E|----------------------------------------2---------------------------2---------------------------|

G|------------------------------------------------------------------------------------------------|
D|------------------------------------------------------------------------------------------------|
A|4-----------------------------------------------------------------------------------------------|
E|------------------------------------------------------------------------------------------------|



2:12

G|------------------------------------------------------------------------------------------------|
D|4-----------------------4-------4---------------------------------------------------------------|
A|----------------4-------------4-----4-----------2-----------------------2-------2-------2-------|
E|----------------------------------------2-------------2-2---2---4-------------2---2/4-------2---|

G|------------------------------------------------------------------------------------------------|
D|------------------------------------------------------------------------4-4-----4-------4-------|
A|4-------4-------4-------4-------4-4-4-------4-----------1---2---4-----4-------4-----4-------4---|
E|------4-----4-----------------4---------4-------2-----2-----------------------------------------|

2:26

G|------------------------------------------------------------------------------------------------|
D|------------------------------------------------------------------------------------------------|
A|--------------------------------------------1---2-------2---------------2-----------2-------2---|
E|2-----2-2-------2-------2-------2-2---2-4-------------2-----2---4-----2-------2---------2-------|

G|------------------------------------------------------------------------------------------------|
D|--------------------------------------------------------------------------------1-----2-----4---|
A|4-------4-------4-------4---4-------4-------4---------1-----1---2---4-----4---------------------|
E|------4-----4---------4-------4---4-----4-------2-----------------------------------------------|

2:40

G|------------------------------------------------------------------------------------------------|
D|4-------4-------4-------------------------------------------------------------------------------|
A|------4-----4-------4-----------1-------1---4---2---------------2-------2-----2-----2-----2-----|
E|--------------------------2---------2-----------------2-2-2/4-------2-----2-----2-----2-----2---|

G|------------------------|
D|------------------------| fades out here.
A|4-------4-------4-------|
E|------4-----4-------4---|
Добавлено: 26.10.2017
Другие материалы по этой песне:
  • Аккорды и текст

Страница создана 14.01.2014
http://primanota.ru/monkees/storybook-of-you-chords.htm
Привет, Гость.
Предлагаем пройти революционный курс по гитаре.
Подарок от PrimaNota.Ru, забирай!