PrimaNota.ru - самый крупный в мире бесплатный архив песенных текстов, аккордов, табулатур и нот


Monkees - Bye Bye, Baby, Bye Bye - текст песни, бас-таба, видео

Регистрация Запомнить меня
Войти через:  Facebook Google Twitter Vk Yandex Mail.ru

Monkees - Bye Bye, Baby, Bye Bye - текст песни, бас-таба, видео

Печатать
Просмотров: 12
Уроки эстрадного вокала в Санкт-Петербурге
Tabbed by: 6METAL6BASSIST6
E-mail: petergriffinav@gmail.com

Tuning: 1/4 step up.

G|----------------------------------------------------5-----------|
D|7-------7-------5---7---7-----------5-------7-----------7-----/-|
A|----------------------------5-/-7-------------------------------|
E|----------------------------------------------------------------|

G|----------------------------------------------------5-----------|
D|7-----/-7-------5-7-7---7-----------5-------7-----------7-------|
A|----------------------------5-----------------------------------|
E|----------------------------------------------------------------|

0:09

G|----------------------------------------------------------------|
D|7-------7-------5---7-------5---7-7-7-------7-------5---7-----/-|
A|----------------------------------------------------------------|
E|----------------------------------------------------------------|

G|-----------------------------------------------------------------------|
D|7-----/-7-------5---7-------5---7-7-7-------7-------5---7----/-7-------|
A|-----------------------------------------------------------------------|
E|-----------------------------------------------------------------------|

G|----------------------------------------------------------------|
D|6-----------------------------------------------7---------------|
A|--------7---------------7---------------7---------------7-------|
E|----------------7-----7-----7---5-------------------------------|

0:21

G|----------------------------------------------------------------|
D|7-------7-------5---7-------5---7-7-7-------7-------5---7-----/-|
A|----------------------------------------------------------------|
E|----------------------------------------------------------------|

G|-----------------------------------------------------------------------|
D|7-----/-7-------5---7-------5---7-7-7-------7-------5---7----/-7-------|
A|-----------------------------------------------------------------------|
E|-----------------------------------------------------------------------|

G|-------------------------------------------------------------------------------7---------------|
D|6-----------------------------------------------7----------------------7---------------7-------|
A|--------7---------------7---------------7----------------------5-------------------------------|
E|----------------7-----7-----7---5-----------------------5--------------------------------------|

0:35

G|----------------------------------------------------------------|
D|--------4-------5-----------------------4-------3---------------|
A|5-------------5---------2---3---5-----------------------3-------|
E|--------------------3-------------------------------------------|

G|------------------------------------------------7---------------|
D|----------------------------------------7---------------4---5---|
A|5-------5-------3-----/-7-------5-------------------5-----------|
E|----------------------------------------------------------------|

0:42

G|----------------------------------------------------------------|
D|----------------------------------------------------------------|
A|----------------------------------------------------------------|
E|----------------------------------------------------------------|

G|------------------------------------------------------------------------|
D|------------------------------------------------------------------------|
A|------------------------------------------------------------------------|
E|------------------------------------------------------------------------|

G|----------------------------------------------------------------|
D|----------------------------------------------------------------|
A|--------------------------------------------------------7-------|
E|----------------------------------------------------------------|

0:55

G|----------------------------------------------------------------|
D|7-------7-------5---7-------5-------7-------7-------5---7-----/-|
A|----------------------------------------------------------------|
E|----------------------------------------------------------------|

G|-----------------------------------------------------------------------|
D|7-----/-7-------5---7-------5---7-7-7-------7-------5---7----/-7-------|
A|-----------------------------------------------------------------------|
E|-----------------------------------------------------------------------|

G|-------------------------------------------------------------------------------7---------------|
D|6-----------------------------------------------7----------------------7---------------7-------|
A|--------7---------------7---------------7----------------------5-------------------------------|
E|----------------7-----7-----7---5-----------------------5--------------------------------------|

1:09

G|----------------------------------------------------------------|
D|--------4-------5-----------------------4-------3---------------|
A|5-------------5---------2---3---5-----------------------3-------|
E|--------------------3-------------------------------------------|

G|------------------------------------------------7---------------|
D|----------------------------------------7-----------------------|
A|5-------5-------3-----/-7-------5---------------------------5---|
E|----------------------------------------------------5-5---7-----|

G|----------------------------------------------------------------|
D|--------7-------5-----------5-----------4-------3---------------|
A|5-----------------------5h7-----5-----------------------3-------|
E|----------------------------------------------------------------|

G|----------------------------------------------------------------|
D|----------------------------------------4-------5-------6-------|
A|5-----------5---7-------7-------5-------------------------------|
E|--------5-------------------------------------------------------|

1:25

G|----------------------------------------------------------------|
D|7-------7-------5---7-------5-------7-------7-------5---7-----/-|
A|----------------------------------------------------------------|
E|----------------------------------------------------------------|

G|-----------------------------------------------------------------------|
D|7-----/-7-------5---7-------5---7-7-7-------7-------5---7----/-7-------|
A|-----------------------------------------------------------------------|
E|-----------------------------------------------------------------------|

G|----------------------------------------------------------------|
D|6-----------------------------------------------7---------------|
A|--------7---------------7---------------7---------------7-------|
E|----------------7-----7-----7---5-------------------------------|

1:36

G|----------------------------------------------------------------|
D|7-----/-7-------5---7-------5---7-7-7-------7-------5---7-7-7-/-|
A|----------------------------------------------------------------|
E|----------------------------------------------------------------|

G|-----------------------------------------------------------------------|
D|7-----/-7-------5---7-------5---7-7-7-------7-------5---7----/-7-------|
A|-----------------------------------------------------------------------|
E|-----------------------------------------------------------------------|

G|----------------------------------------------------------------|
D|6-----------------------------------------------7-----7---------|
A|--------7---------------7---------------7---------------7-------|
E|----------------7-----7-----7---5-------------------------------|

G|----------------------------------------------------------------|
D|6---------------------------------------------------------------|
A|--------7---------------7---------------------------------------|
E|----------------7-----7-----7-----------------------------------|

G|--------------------------------|
D|--------------------------------|
A|--------------------------------|
E|--------------------------------|

1:55

G|----------------------------------------------------5-----------|
D|7-------7-------5---7---------------5-------7-----------7-----/-|
A|----------------------------5-/-7-------------------------------|
E|----------------------------------------------------------------|

G|----------------------------------------------------5-----------|
D|7-----/-7-------5---7---------------5-------7-----------7-----/-| x2
A|----------------------------5-/-7-------------------------------|
E|----------------------------------------------------------------|

G|----------------------------------------------------5-----------|
D|7-----/-7-------5---7---7-----------5-------7-----------7-----/-| x2 to fadeout.
A|----------------------------5-/-7-------------------------------|
E|----------------------------------------------------------------|
Добавлено: 25.04.2017
Другие материалы по этой песне:
  • Аккорды и текст

Страница создана 15.05.2012
http://primanota.ru/monkees/bye-bye-baby-bye-bye-chords.htm
Привет, Гость.
Предлагаем пройти революционный курс по гитаре.
Подарок от PrimaNota.Ru, забирай!