PrimaNota.ru - самый крупный в мире бесплатный архив песенных текстов, аккордов, табулатур и нот


Monkees - Dont Call on me - текст песни, бас-таба, видео

Регистрация Запомнить меня
Войти через:  Facebook Google Twitter Vk Yandex Mail.ru

Monkees - Dont Call on me - текст песни, бас-таба, видео

Печатать
Просмотров: 58
Уроки эстрадного вокала в Санкт-Петербурге
Tabbed by: 6METAL6BASSIST6
E-mail: petergriffinav@gmail.com

Tuning: About 1/4 step down.

0:25

G|----------------------------------------------------------------|
D|----------------------------------------------------------------|
A|----------------------------------------------------------------|
E|----------------------------------------------------------------|

G|------------8-------------------------------8-------------------|
D|------------------/-8-----/-8---------------------/-8-----/-8---|
A|6-------------------------------8-------------------------------|
E|----------------------------------------------------------------|

0:34

G|------------8---------------------------------------8-----------|
D|------------------/-8-----/-8-------------/-8-------------/-8---|
A|6-------------------------------8-------------------------------|
E|----------------------------------------------------------------|

G|------------8---------------------------------------8-----------|
D|------------------/-8-----/-8-------------/-8-------------------|
A|6-------------------------------8---------------------------6---|
E|----------------------------------------------------------------|

G|--------------------------------------------8-------------------|
D|6-----------6---8---------------------------------/-8-----/-8---|
A|--------------------------------6-------------------------------|
E|--------------------6-------8-----------------------------------|

G|--------------------8-----------|
D|----------/-8-------------/-8---|
A|8-------------------------------|
E|--------------------------------|

0:51

G|------------8-------------------------------8-------------------|
D|------------------/-8-----/-8---------------------/-8-----/-8---|
A|6-------------------------------8-------------------------------|
E|----------------------------------------------------------------|

G|------------8-------------------------------8-------------------|
D|------------------/-8-----/-8---------------------/-8-----------|
A|6-------------------------------8---------------------------6---|
E|----------------------------------------------------------------|

G|--------------------------------------------8-------------------|
D|6-----------6---8---------------------------------/-8-----/-8---|
A|--------------------------------6-------------------------------|
E|--------------------6-------8-----------------------------------|

G|------------8-------------------|
D|--------------------8-----------|
A|6---------------------------6---|
E|--------------------------------|

1:08

G|----------------------------------------------------------------|
D|6-------------------6-----------6-----------6-------------------|
A|--------6---8-----------8---6-------6---8-----------8-----------|
E|--------------------------------------------------------6---8---|

G|----------------------------------------------------------------|
D|----------------6-------------/-8-------------------------------|
A|6-------6---------------8---------------------------------------|
E|--------------------------------------------------------6-------|

G|------------8-------------------------------8-------8-----------|
D|------------------/-8-----/-8-----------------------------------|
A|6-------------------------------6---------------------------6---|
E|----------------------------------------------------------------|

1:21

G|----------------------------------------------------------------|
D|6-------------------6-----------6-----------6-------------------|
A|--------6---8-----------8---6-------6---8-----------8-----------|
E|--------------------------------------------------------6---8---|

G|--------------------------------------------------------8-------|
D|--------------------------------------------------/-8-----/-8---|
A|6---------------------------------------------------------------|
E|----------------------------------------------------------------|

1:31

G|------------8-------------------------------8-------------------|
D|--------------------8-------8-----------------------8-------8---|
A|6-------------------------------8-------------------------------|
E|----------------------------------------------------------------|

G|------------8-------------------------------8-------------------|
D|--------------------8-----/-8---------------------/-8-----/-8---|
A|6-------------------------------8-------------------------------|
E|----------------------------------------------------------------|

G|------------8---------------------------------------------------|
D|------------------/-8-------8---6-------------------------------|
A|6-----------------------------------------------8---8-----------|
E|----------------------------------------------------------------|

G|--------------------------------------------8-------------------|
D|----6-------6---8-----------------------------------8-------8---|
A|--------------------------------6-------------------------------|
E|4-------------------6-------8-----------------------------------|

G|------------8-------------------|
D|--------------------8-------8---|
A|8-------------------------------|
E|--------------------------------|

1:51

G|------------8-------------------------------8-------------------|
D|--------------------8-------8---------------------/-8-----/-8---|
A|6-------------------------------8-------------------------------|
E|----------------------------------------------------------------|

G|------------8-------------------------------8-------------------|
D|------------------/-8-----/-8---------------------/-8-----------|
A|6-------------------------------8---------------------------6---|
E|----------------------------------------------------------------|

G|--------------------------------------------8-------------------|
D|6-----------6---8---------------------------------/-8-----/-8---|
A|--------------------------------6-------------------------------|
E|--------------------6-------8-----------------------------------|

G|------------8-------------------|
D|--------------------8-------8---|
A|8-------------------------------|
E|--------------------------------|

2:07

G|------------8-------------------------------8-------------------|
D|------------------/-8-------8---------------------/-8-------8---|
A|6-------------------------------8-------------------------------|
E|----------------------------------------------------------------|

G|------------8-------------------------------8-------------------|
D|------------------/-8-------8-----------------------8-----------|
A|6-------------------------------8---------------------------6---|
E|----------------------------------------------------------------|

G|--------------------------------------------8-------------------|
D|6-----------6---8---------------------------------/-8-------8---|
A|--------------------------------6-------------------------------|
E|--------------------6-------8-----------------------------------|

2:22

G|------------8-------------------------------8-------------------|
D|----------------6---8-------------------------------8-------8---|
A|8-------------------------------6-------------------------------|
E|----------------------------------------------------------------|

G|--------------------------------------------8-------------------|
D|----------------6---8-------------------------------8-----/-8---|
A|8-----------8-------------------6-------------------------------|
E|----------------------------------------------------------------|

G|--------------------------------------------8-------------------|
D|----------------6---8-------------------------------8-------8---|
A|8-----------8-------------------6-------------------------------|
E|----------------------------------------------------------------|

G|----------------------------------------------------------------|
D|----------------6---8-------------------------------------------|
A|8-----------8-------------------6-------------------------------|
E|----------------------------------------------------------------|
Добавлено: 25.06.2017
Другие материалы по этой песне:
  • Аккорды и текст

Страница создана 21.06.2012
http://primanota.ru/monkees/dont-call-on-me-chords.htm
Привет, Гость.
Предлагаем пройти революционный курс по гитаре.
Подарок от PrimaNota.Ru, забирай!