PrimaNota.ru - самый крупный в мире бесплатный архив песенных текстов, аккордов, табулатур и нот


Monkees - Can You Dig It - текст песни, бас-таба, видео

Регистрация Запомнить меня
Войти через:  Facebook Google Twitter Vk Yandex Mail.ru

Monkees - Can You Dig It - текст песни, бас-таба, видео

Печатать
Просмотров: 63
Уроки эстрадного вокала в Санкт-Петербурге
Tabbed by: 6METAL6BASSIST6
E-mail: petergriffinav@gmail.com

Tuning: 1/4 step down.

G|----------------------------------------------------------------|
D|----------------------------------------------------------------|
A|----------------------------------------------------------------|
E|--------------------------------------------------------0-----/-|

G|----------------------------------------------------------------|
D|----------------------------------------------------------------| x2
A|----------------------------------------------------------------|
E|5-----------------------0-----/-5-----------------------0-----/-|

0:12

G|----------------------------------------------------------------|
D|----------------------------------------------------------------| x3
A|----------------------------------------------------------------|
E|5-----------5---5-------0-----/-5-----------5---5-------0-----/-|

G|----------------------------------------------------------------|
D|----------------------------------------------------------------|
A|----------------------------------------------------------------|
E|5-----------5---5-------0-----/-5-----------5---5-------5-------|

0:27

G|----------------------------------------------------------------|
D|----------------------------------------------------------------|
A|5-----------5---5---------------5-----------5---5---5-------3---|
E|----------------------------5-----------------------------------|

G|----------------------------------------------------------------|
D|----------------------------------------------------------------|
A|1-----------1---1-----------------------------------------------|
E|----------------------------1-/-6-----------6---6---6-------6---|

G|--------------------------------------------------------|
D|--------------------------------------------------------|
A|8-----------7-----------5---------------7---------------|
E|------------------------------------------------0-------|

G|----------------------------------------------------------------|
D|----------------------/-8-----\-7-------------------------------|
A|----------------------------------------------------------------|
E|--------------------------------------------------------0-----/-|

0:42

G|----------------------------------------------------------------|
D|----------------------------------------------------------------| x3
A|----------------------------------------------------------------|
E|5-----------5---5---5-------0---5-----------5---5---3---0---3---|

G|----------------------------------------------------------------|
D|----------------------------------------------------------------|
A|----------------------------------------------------------------|
E|5-----------5---5---5-------0---5-----------5---5-------5-------|

0:59

G|----------------------------------------------------------------|
D|----------------------------------------------------------------|
A|5-----------5---5---------------5-----------5---5---5-------3---|
E|----------------------------5-----------------------------------|

G|----------------------------------------------------------------|
D|----------------------------------------------------------------|
A|1-----------1---1-----------------------------------------------|
E|----------------------------1-/-6-----------6---6---6-------6---|

G|--------------------------------------------------------|
D|--------------------------------------------------------|
A|8-----------7-----------5---------------7---------------|
E|------------------------------------------------0-------|

G|----------------------------------------------------------------|
D|----------------------/-8-----\-7-------------------------------|
A|----------------------------------------------------------------|
E|--------------------------------------------------------0-----/-|

1:13

G|----------------------------------------------------------------|.
D|----------------------------------------7-5-----5---------------|.
A|--------------------------------------------7-------7---5---3---|.
E|5-------5-------5---3---0---3---5-------------------------------|.
                                                                   . x2
G|----------------------------------------------------------------|.
D|----------------------------------------7-5-----5-------5---7---|.
A|--------------------------------------------7-------7-----------|.
E|5-------5-------5---3---0---3---5-------------------------------|.

1:28

G|----------------------------------------------7---5-----5---7---|
D|------------------------------------------------------7---------|
A|5-------5-------5---3-------3---5-------5---5-------------------|
E|--------------5---------5---------------------------------------|

G|----------------------------------------------------------------|
D|----------------------------------------------8---5-----5---8---|
A|8-------8-------8---5-------5---8-------8---8---------8---------|
E|--------------8---------8---------------------------------------|

G|--------------------------------------------------------|
D|--------------------------------------------------------|
A|8-----------7-----------5---------------7---------------|
E|------------------------------------------------0-------|

G|----------------------------------------------------------------|
D|----------------------/-8-----\-7-------------------------------|
A|----------------------------------------------------------------|
E|--------------------------------------------------------0-----/-|

1:44

G|----------------------------------------------------------------|
D|----------------------------------------------------------------| x2
A|----------------------------------------------------------------|
E|5-----------5---5-------0-----/-5-----------5---5-------0-----/-|

G|----------------------------------------------------------------|
D|----------------------------------------------------------------|
A|----------------------------------------------------------------|
E|5-----------5---5-------0-----/-5-----------5-----------0-----/-|

G|----------------------------------------------------------------|
D|----------------------------------------------------------------|
A|----------------------------------------------------------------|
E|5-----------5---5-------0-----/-5-----------5---5-------5-------|

1:59

G|----------------------------------------------------------------|
D|----------------------------------------------------------------|
A|5-----------5---5---5-----------5-----------5---5-----------3---|
E|----------------------------5-----------------------------------|

G|----------------------------------------------------------------|
D|----------------------------------------------------------------|
A|1-----------1---1-----------------------------------------------|
E|----------------------------1-/-6-----------6---6-----------6---|

G|--------------------------------------------------------|
D|--------------------------------------------------------|
A|8-----------7-----------5---------------7---------------|
E|------------------------------------------------0-------|

G|----------------------------------------------------------------|
D|----------------------/-8-----\-7-------------------------------|
A|----------------------------------------------------------------|
E|--------------------------------------------------------0-----/-|

G|----------------------------------------------------------------|
D|----------------------------------------------------------------|
A|----------------------------------------------------------------|
E|5-------------------------------------------------------0-----/-|

2:18

G|----------------------------------------------------------------|
D|--------7-5-----5-------5---7-----------------------------------| x4
A|------------7-------7-------------------------------------------|
E|5-------------------------------5-------5-----0-5---3---0---3---|

2:34

G|----------------------------------------------------------------|
D|--------7-5-----5-----------------------------------------------| x2
A|------------7-------7---5---3-----------------------------------|
E|5-------------------------------5-------5-----0-5---3---0---3---|

G|----------------------------------------------------------------|
D|--------7-5-----5-------5---7-----------------------------------|
A|------------7-------7-------------------------------------------|
E|5-------------------------------5-------5-----0-5---3---0---3---|

G|----------------------------------------------------------------|
D|--------7-5-----5-----------------------------------------------|
A|------------7-------7---5---3-----------------------------------|
E|5-------------------------------5-------5-3-0---3---0-------3---|

2:49

G|----------------------------------------------------------------|
D|--------7-5-----5-------5---------------------------------------|
A|------------7-------7-------------------------------------------|
E|5-------------------------------5-------5-3-0---5---3---0---3---|

G|----------------------------------------------------------------|
D|--------7-5-----5-------5---9-----------------------------------|
A|------------7-------7-------------------------------------------|
E|5-------------------------------5-------5-----0-5---3---0---3---|

G|----------------------------------------------------------------|
D|--------7-5-----------------------------------------------------|
A|------------7---7-5-3---5---7-----------------------------------|
E|5-------------------------------5-------5-3-0---3---0-------3---|

G|----------------------------------------------------------------|
D|--------7-5-----------------------------------------------------|
A|------------7---5---5---3---5-----------------------------------|
E|5-------------------------------5-------5-----0-5---3---0---3---|

3:05

G|----------------------------------------------------------------|
D|--------7---------------5---7-----------------------------------|
A|--------------7-7---7-------------------------------------------|
E|5-------------------------------5-------5-3-0---5---3---0---3---|

G|----------------------------------------------------------------|
D|--------7-5-----5-------5---------------------------------------|
A|------------7-------7-------------------------------------------|
E|5-------------------------------5-------5-3-0---5---3---0---3---|

G|--------------------------------------------------------------------|
D|--------7-5-----5-------5---7---------------------------------------|
A|------------7-------7-----------------------------------------------|
E|5-------------------------------5-------5-3-0---3-----0-----3---5---|
Добавлено: 25.04.2017
Другие материалы по этой песне:
  • Аккорды и текст

Страница создана 24.03.2012
http://primanota.ru/monkees/can-you-dig-it-chords.htm
Привет, Гость.
Предлагаем пройти революционный курс по гитаре.
Подарок от PrimaNota.Ru, забирай!