PrimaNota.ru - самый крупный в мире бесплатный архив песенных текстов, аккордов, табулатур и нот


Mogwai - Youre Lionel Richie - таба, видео

Регистрация Запомнить меня
Войти через:  Facebook Google Twitter Vk Yandex Mail.ru

Mogwai - Youre Lionel Richie - таба, видео

Печатать
Просмотров: 112
Title: You're Lionel Richie
Artist: Mogwai
Album: Hardcore Will Never Die, But You Will
Tempo = ~96

Tuning: C-G-D-G-B-E

Legend
h - hammer on/pull off
s - slide
v - brush up
^ - brush down

P.S. if you need more detail about timing listen to the song
     or see Guitar Pro version of this solo (also made by me).

Solo begin at 2:06

                       ^                                
E |----------------------------------------------------|
B |----------------------------------------------------|
G |--3--5----------------------------------------------|
D |-----------3--5-----5s----------12----12h10---------|
G |--------------------3s----------10----10------------|
C |--0-----0--------0--3s----------10----10------------|

                                                     
----------------------------------------------------|
--------------------------------------11------------|
--9--10h9--------------9s---------------------------|
-----------10----12-------------10------------------|
-----------------------------8s----8----------------|
--0-----------0-----0-------------------------------|

                                                     
----------------------------------------------------|
----------------------------------------------------|
--5--8----------------------------------------------|
-----------5--8--------------10-12s---5-------------|
--------------------10-------10-------3-------------|
--0-----0--------0--8--------10-------3-------------|

                                                     
----------------------------------------------------|
----------------------------------------------------|
--------------------3-----------------------8-------|
--3--5--------------------------8-----8--10---------|
-----------5----------------------------------------|
--0-----0--------------------8s----8-----------8----|

                                                     
----------------------------------------------------|
----------------------------------------------------|
--7--8h-7-----------------------------5-------------|
-----------8-----10----7--------7-------------------|
-----------------------5-----------5----------------|
--0-----------0-----0--5-----5----------------------|

                                                     
----------------------------------------------------|
----------------------------------------------------|
--------------------------------------0-------------|
--0--1-----3-----5-----3----------------------------|
-----------------------------3s-3--------3s-5-------|
--0-----0-----0-----0--------3s----3-----3s-5-------|

                                                     
----------------------------------------------------|
----------------------------------------------------|
-----------------3--------------------3-------------|
-----------5-----------5--------5--------5-----5----|
-----5--------------------------------------5-------|
--0-----0-----0-----0--------5-----5----------------|

                                                     
----------------------------------------------------|
----------------------------------------------------|
-----------------3----------------------------------|
-----------5-----------5--------------5-------------|
-----5-----------------3--------3-------------------|
--0-----0-----0--------3-----3-----3----------------|

                                                     
----------------------------------------------------|
-----------9--------------------------9-------------|
--10-12----------12----12-------12-------12----12---|
----------------------------------------------------|
----------------------------------------------------|
--10----10----------10-------10----10-------10------|

                                                     
----------------------------------------------------|
--11-13----------------------9h-8-------------------|
-----------12----13---------------------------------|
-----------------------------------10---------------|
----------------------------------------------------|
--0-----0-----------0--8----------------------------|

                                                      
----------------------------------------------------||
----------------------------------------------------||
--------------------------3-------------------------||
-----3--------5--------------------------5----------||
-----------------------------------3s-5-------------||
--3--------3-----------3-----------3s-5-------------||

                                                      ^  ^
---------------------------------------------------|---------||
-------------------3-------------------------------|---------||
o3-----------3--5--------5-------------------------|--5--5--o||
o--------------------------------------------------|--------o|| this line x4
---------------------------------------------------|---------||
-0--------0----------------------------------------|--3--3---||


----------------------------------------------------||
--------------------3-------------------------------||
--3-----------3--5--------5-------------------------||
----------------------------------------------------||
----------------------------------------------------||
--0--------0----------------------------------------||

Добавлено: 13.07.2015
Другие материалы по этой песне:

Страница создана 13.07.2015
http://primanota.ru/mogwai/youre-lionel-richie-chords.htm
Привет, Гость.
Предлагаем пройти революционный курс по гитаре.
Подарок от PrimaNota.Ru, забирай!