PrimaNota.ru - самый крупный в мире бесплатный архив песенных текстов, аккордов, табулатур и нот


Mogwai - May Happiness Come Through Your Door - таба, видео

Регистрация Запомнить меня
Войти через:  Facebook Google Twitter Vk Yandex Mail.ru

Mogwai - May Happiness Come Through Your Door - таба, видео

Печатать
Просмотров: 135
Song: May Happiness Come Through Your Door
Artist: Mogwai
Album: Come On Die Young

My first tab, didn't do the bell part though because I couldn't figure it out.

Intro:

E|----|
A|-7--|
D|-10-|
G|----|
B|----|
E|----| x4

Main Riff:

E|-----------------------------------------------------|
A|-----------------------------------------------------|
D|-----------------------------------------------------|
G|----------------------------10-10-10-10-10-10-10-7-9-|
B|-12-12-12-12-12-12-12-13-10--------------------------|
E|-----------------------------------------------------|

Main Riff (Variation):

E|------------------------------------------------------|
A|------------------------------------------------------|
D|------------------------------------------------------|
G|---------------------------10-10-10-10-10-10-10-7-9-9-|
B|-12-12-12-12-12-12-12-8-10----------------------------|
E|------------------------------------------------------|

Second Riff:

E|-----------------------------------------------------|
A|-12-12-12-12-10-10-10-10-8-8-8-8-7-7-7-7-------------|
D|-----------------------------------------------------|
G|-----------------------------------------------------|
B|-----------------------------------------------------|
E|-----------------------------------------------------| x4


E|-----------------------------------------------------|
A|-----------------------------------------------------|
D|-----------------------------------------------------|
G|-5-5-5-5-7-7-7-7-9-9-9-9-10-10-10-10-----------------|
B|-----------------------------------------------------|
E|-----------------------------------------------------| x4
Добавлено: 29.08.2015
Вам также может быть интересно:
Другие материалы по этой песне:
  • Аккорды и текст

Страница создана 29.08.2015
http://primanota.ru/mogwai/may-happiness-come-through-your-door-chords.htm
Привет, Гость.
Предлагаем пройти революционный курс по гитаре.
Подарок от PrimaNota.Ru, забирай!