PrimaNota.ru - самый крупный в мире бесплатный архив песенных текстов, аккордов, табулатур и нот


Mogwai - This Messiah Needs Watching - таба, видео

Регистрация Запомнить меня
Войти через:  Facebook Google Twitter Vk Yandex Mail.ru

Mogwai - This Messiah Needs Watching - таба, видео

Печатать
Просмотров: 57
Mogwai :This messiah needs watching ( soundtrack les revenants )

https://www.youtube.com/watch?v=10CGn8AigTs


Beginning : Kind of electric piano ( guitar also possible )
    
E-|--------------------------------|    [repeat]
B-|------5---5---5-------5-6-5-----|
G-|----7---------------7-------7---|   
D-|--7---------------------------7-|
A-|5-------------------------------|
E-|--------------------------------|  Played the whole song


Kind of glockenspiel/celesta themes 


At 00:27

e|10-8-----|--------|--------|--------|--------|
B|-----8-10|6-8---6-|5-----6-|8-6-5-6-|--------|
G|---------|----7---|--7-----|--------|7-------|
D|---------|--------|----7---|--------|--------|
A|---------|--------|--------|--------|--------|
E|---------|--------|--------|--------|--------|


 At 00:54

e|10-8-----|--------|--------|--------|--------|
B|-----8-10|6-8-5-6-|3-6-5---|--6-8---|--------|
G|---------|--------|------7-|------9-|7-------|
D|---------|--------|--------|7-------|--------|
A|---------|--------|--------|--------|--------|
E|---------|--------|--------|--------|--------|


At 01:19

e|---------|--------|--------|--------|10--8---|
B|-------8-|6-5-6-8-|10----8-|6-5-6-8-|--------|
G|---------|--------|--7-----|--------|--------|
D|---------|--------|--------|--------|--------|
A|---------|--------|--------|--------|--------|
E|---------|--------|--------|--------|--------|

e|---------|--------|--------|--------|--------|
B|8-10---6-|8--10---|8-10--6-|8-10----|7-------|
G|---------|--------|--------|--------|--------|
D|---------|--------|--------|--------|--------|
A|---------|--------|--------|--------|--------|
E|---------|--------|--------|--------|--------|


At 01:47

e|---------|--------|--------|--------|
B|5---6----|8---10--|--------|--------|
G|---------|--------|7-------|7-------|
D|---------|--------|--------|--------|
A|---------|--------|--------|--------|
E|---------|--------|--------|--------|


At 01:56

e|10-8-----|--------|--------|--------|--------|
B|-----8-10|6-8---6-|5-----6-|8---6-3-|--------|
G|---------|----7---|--7-----|--9-----|2-------|
D|---------|--------|----7---|--------|--------|
A|---------|--------|--------|--------|--------|
E|---------|--------|--------|--------|--------|


At 02:17

e|---------|----5---|8-------|--------|
B|----5----|6-------|--------|--------|
G|---------|--------|--------|--------|
D|---------|--------|--------|--------|
A|---------|--------|--------|--------|
E|---------|--------|--------|--------|


At 02:23

e|10-8-----|--------|--------|--------|--------|
B|-----8-10|6-8---6-|5-----6-|8-6-5-6-|--------|
G|---------|----7---|--7-----|--------|7-------|
D|---------|--------|----7---|--------|--------|
A|---------|--------|--------|--------|--------|
E|---------|--------|--------|--------|--------|


At 02:37

e|--------|
B|--------|
G|7-------|
D|--------|
A|--------|
E|--------|


At 02:42

e|--------|--------|--------|--------|
B|5-------|6---8---|10------|--------|
G|--------|--------|--------|--------|
D|--------|--------|--------|--------|
A|--------|--------|--------|--------|
E|--------|--------|--------|--------|


At 02:50

e|--------|--------|--------|--------|--------|
B|8---6---|5-------|8---6---|5-------|--------|
G|--------|----7---|--------|----7---|--------|
D|--------|--------|--------|--------|7-------|
A|--------|--------|--------|--------|--------|
E|--------|--------|--------|--------|--------|




The rest are variations on those themes
eva1@mail.be ( Alain.R )


Добавлено: 18.04.2016
Другие материалы по этой песне:
  • Аккорды и текст

Страница создана 18.04.2016
http://primanota.ru/mogwai/this-messiah-needs-watching-chords.htm
Привет, Гость.
Предлагаем пройти революционный курс по гитаре.
Подарок от PrimaNota.Ru, забирай!