PrimaNota.ru - самый крупный в мире бесплатный архив песенных текстов, аккордов, табулатур и нот


Misc Unsigned Bands - Zilmen - Whos Thinking About You - аккорды и текст

Регистрация Запомнить меня
Войти через:  Facebook Google Twitter Vk Yandex Mail.ru

Misc Unsigned Bands - Zilmen - Whos Thinking About You - аккорды и текст

Печатать
Просмотров: 88
Zilmen - Whos Thinking About You
Misc Unsigned Bands
Žilmen - Who's thinking about you


Capo 4th fret

Basic strumming pattern - down down up up down up


Play the G like  --3--
                 --3--
                 --0--
                 --0--
                 --2--
                 --3--


Intro: (relative to capo)

   G            Bm             D             Dsus2     G
e----3---3---3-----2---2---2-----2---2---2-----0---0---3-----
B-----3---3---------3---3---------3---3---------3---3--------
G------0---0---------4---4---------2---2---------2---2-------
D----------------4-------------0-------------0---------------      
A--2---------------------------------------------------------
E------------------------------------------------------------

   G            Bm             D         Dsus4              D       Dsus4
e----3---3---3-----2---2---2-----2---2---3-----3---3---2----2---2---3-----3---3---3--|
B-----3---3---------3---3---------3---3---------3---3--------3---3---------3---3-----|
G------0---0---------4---4---------2---2---------2---2--------2---2---------2---2----|
D----------------4-------------0-------------0------------0------------0-------------|     
A--2---------------------------------------------------------------------------------|
E------------------------------------------------------------------------------------|



G                Bm
I'm still hoping there is a way 
     D                       Dsus2
that you could stay a little longer
     G                   Bm
Hear all the things that I wanna say
    D                 Dsus4
coz you are making me stronger.. then I was.

G              Bm
There is not a single day 
D                 Dsus2
without thinking about you
G                        Bm
I keep dreaming that you feel it the same way 
    D            Dsus4
and time to time missing me too. 

G            Bm
Every time I see your smile 
        D                   Dsus2
there's nothing but you and me
    G                 Bm
the whole world stops spinning for a while
   D                Dsus4  
it makes me feel so free.. like a bird.

G          Bm
You have a very special heart
D                Dsus2
that can melt my own
   G        Bm
we both are sharing the same part 
   D            Dsus4
of unique crazy soul soul.

G     Bm
I can talk to you forever 
    D               Dsus2
and still be having fun
    G            Bm
for me no matter what is the weather
    D          Dsus4
coz you are my sunshine. 

G
You are my Wonderwall
Bm
you are my light 
     D
it's you who I want to call 
Dsus2
through day and night. 
G                   Bm
Just so I could say hey
          D                        Dsus4
I've been thinking about you every minute of my day.

G                Bm
I wanna tell you you are my butterfly
D            Dsus2
flying in my heart
G                   Bm
When I'm with you I feel like I can fly
D                  Dsus4
up really high and straight to the sky.

G                   Bm
I will play for you on my guitar 
D                  Dsus2
Broken Strings and Falling Slowly
      G                    Bm
in my heart you're shining like a little star
D                            Dsus4
that's why I'm never feeling lonely. 

G              Bm
When I wake up in the morning 
    D                   Dsus2
I'd like to be there to kiss you
G               Bm
tell you gently where I'm going 
D               Dsus4
and that I will miss you.  



Outro:

   G            Bm             D             Dsus2
e----3---3---3-----2---2---2-----2---2---2-----0---0---0-----|
B-----3---3---------3---3---------3---3---------3---3--------|
G------0---0---------4---4---------2---2---------2---2-------|
D----------------4-------------0-------------0---------------|       
A--2---------------------------------------------------------|
E------------------------------------------------------------|
Добавлено: 11.10.2015
Другие материалы по этой песне:
  • Аккорды и текст

Страница создана 11.10.2015
http://primanota.ru/misc-unsigned-bands/zilmen-whos-thinking-about-you-chords.htm
Привет, Гость.
Предлагаем пройти революционный курс по гитаре.
Подарок от PrimaNota.Ru, забирай!