PrimaNota.ru - самый крупный в мире бесплатный архив песенных текстов, аккордов, табулатур и нот


Misc Unsigned Bands - Zombies On Vacation - Go Ahead Hate Me - аккорды и текст

Регистрация Запомнить меня
Войти через:  Facebook Google Twitter Vk Yandex Mail.ru

Misc Unsigned Bands - Zombies On Vacation - Go Ahead Hate Me - аккорды и текст

Печатать
Просмотров: 90
Zombies On Vacation - Go Ahead Hate Me
Misc Unsigned Bands
Band: Zombies On Vacation
Album: Brain Waves
Song: Go Ahead Hate Me



D5                                 A5              D5
Go Ahead And Hate Me!      I Don't         Care!
D5                                 A5              D5
Make fun of my clothes and how I wear my hair.
G5
Laugh at my shoes         and the way      that I talk 
D5                                 A5              D5]
Ridicule my music,         go ahead and   Mock 



G5 
But just remember this, one day we'll all be dead
D5 
We'll be six feet under the ground, with the tombstone above our head
C5                                                F5 
I'll have lived my life to the fullest, that I know is true
G5
When you're on your deathbed, can the same be said of you? 





D5                                 A5              D5
Go Ahead And Hate Me!      I Don't         Care! 
D5                                 A5              D5
Make fun of my clothes and how I wear my hair. 
G5
Laugh at my shoes         and the way      that I talk
D5                                 A5              D5
Ridicule my music,         go ahead and   Mock



Solo guitar

E------------------------------------------|
B------------------------------------------|
G------------------------------------------|
D------------------------------------------|
A---10---10-10----12-10-10---12-10--10--10-| 
E------------------------------------------|


E------------------------------------------|
B------------------------------------------|
G------------------------------------------| 
D------------------------------------------|
A------------------------------------------|
E---10---10-10----12-10-10---12-10--10--10-|


E------------------------------------------| 
B------------------------------------------|
G------------------------------------------|
D------------------------------------------|
A---------------------8----8-8-10-8--------|
E--8---8-8-10-8----------------------------| 


E--------------------------------------------------------| 
B--------------------------------------------------------|
G--------------------------------------------------------| 
D--------------------------------------------------------|
A-----10---10-10----12-10------10-10-10-10-10-10-10-10---| 
E--------------------------------------------------------|


G5
You laugh at all the people, who don't look just like you
D5
Ridicule their creativity, afraid of something new
C5                                               F5  
I don't know what you're scared of, is it other people's words?
G5
You're just a clone of boring, well I'm proud to be a nerd!



D5                                 A5              D5
Go Ahead And Hate Me!      I Don't         Care! 
D5                                 A5              D5
Make fun of my clothes and how I wear my hair. 
G5
Laugh at my shoes         and the way      that I talk
D5                                 A5              D5
Ridicule my music,         go ahead and   Mock


G5
But I'll tell you this....

D5
I DON'T CARE
Добавлено: 11.10.2015
Другие материалы по этой песне:
  • Аккорды и текст

Страница создана 11.10.2015
http://primanota.ru/misc-unsigned-bands/zombies-on-vacation-go-ahead-hate-me-chords.htm
Привет, Гость.
Предлагаем пройти революционный курс по гитаре.
Подарок от PrimaNota.Ru, забирай!