PrimaNota.ru - самый крупный в мире бесплатный архив песенных текстов, аккордов, табулатур и нот


Misc Unsigned Bands - Zombies On Vacation - Little Freak - аккорды и текст, видео

Регистрация Запомнить меня
Войти через:  Facebook Google Twitter Vk Yandex Mail.ru

Misc Unsigned Bands - Zombies On Vacation - Little Freak - аккорды и текст, видео

Печатать
Просмотров: 73
Уроки эстрадного вокала в Санкт-Петербурге
Zombies On Vacation - Little Freak
Misc Unsigned Bands
Band: Zombies On Vacation
Album: Brain Waves
Song: Little Freak


E----------------------------------------------------------| 
B----------------------------------------------------------|
G----------------------------------------------------------|
D--------2-3-3-2-----0-------------2-3-3-2--------0--------|
A----3-3---------------3------3-3------------------3-------|
E----------------3-3-----------------------3-3-3-----------|

1-2-3-4
I declare a freak war
Google Gabba freak more

8-7-6-5
The freaks are here, we're alive


Verse 1

C5 (8 fret)      F5 (8 fret)    G5 (3 fret) C5 (3 fret)
Tired of being a square pushed in a      circle

C5 (8 fret)  F5 (8 fret)   G5 (3 fret) C5 (8 fret)
idea of      normal is    driving me insane 

C5 (8 fret)  F5 (8 fret)   G5 (3 fret)    C5 (3 fret)
Gonna stop jumping through other people's hurdles

C5 (8 fret) F5 (8 fret)   G5 (3 fret)     C5 (8 fret)
Live my     life by the rules of my  own game




Chorus

F5 (8 fret)
live it up, live it down, live it sideways

C5 (8 fret)    
Live my life any way         that I choose

F5 (8 fret)
To hell with people's expectations

C5 (8 fret) 
This little freak's gonna write his own rules.


C F C G
C F D C


Verse 2

C5 (8 fret)   F5 (8 fret)   G5 (3 fret) C5 (3 fret)
Stop slamming me with your political   agenda

C5 (8 fret)         F5 (8 fret)   G5 (3 fret)    C5 (8 fret)
Keep your thoughts about      re-ligion to your-self.

C5 (8 fret)   F5 (8 fret)   G5 (3 fret) C5 (3 fret)
Don't tell me what to      wear on the weekends

C5 (8 fret)  F5 (8 fret)      G5 (3 fret) C5 (8 fret)
If I wanna   eat meat, don't criticize   my health.



Chorus

F5 (8 fret)
live it up, live it down, live it sideways

C5 (8 fret)    
Live my life any way         that I choose

F5 (8 fret)
To hell with people's expectations

C5 (8 fret) 
This little freak's gonna write his own rules.

C F C G
C F D C



Solo (chord underneath C F G C )

E----------------------------------------------------------| 
B----------------------------------------------------------|
G---------------------------------------0-2-0--------------|
D--------2-3-3-2-----0------------2-3-3-------3-2----------|
A----3-3---------------3------3-3--------------------------|
E----------------3-3---------------------------------------|



E----------------------------------------------------------| 
B----------------------------------------------------------|
G----------------------------------------------------------|
D--------2-3-3-2-----0-------------2-3-3-2--------0--------|
A----3-3---------------3------3-3------------------3-------|
E----------------3-3-----------------------3-3-3-----------|



C F C G
C F D C

(Spoken)
In this crazy world of people trying to fit in,
Just remember you are an individual, not a robot.

Don't be concerned about finding yourself,
Instead, it's time to start creating yourself.



C5 (8 fret)      F5 (8 fret)   G5 (3 fret) C5 (3 fret)
can't change my  past but can dictate my future

C5 (8 fret)      F5 (8 fret)   G5 (3 fret)        C5 (8 fret)
This little     freak's gonna live its life care free

C5 (8 fret)      F5 (8 fret)   G5 (3 fret)  C5 (3 fret)
Don't try to     feed me your stupid    il-lusions

C5 (8 fret)      F5 (8 fret)   G5 (3 fret) C5 (8 fret)
Gonna live my    Life         According to me   



Chorus

F5 (8 fret)
Gonna live it up, live it down, live it sideways

C5 (8 fret)    
Live my life any way that I choose

F5 (8 fret)
To hell with people's expectations

C5 (8 fret) 
This little freak's gonna write its own rules.


C F C G
C F D C

Solo with chords above

E----------------------------------------------------------| 
B----------------------------------------------------------|
G---------------------------------------0-2-0--------------|
D--------2-3-3-2-----0------------2-3-3-------3-2----------|
A----3-3---------------3------3-3--------------------------|
E----------------3-3---------------------------------------|



E----------------------------------------------------------| 
B----------------------------------------------------------|
G----------------------------------------------------------|
D--------2-3-3-2-----0-------------2-3-3-2--------0--------|
A----3-3---------------3------3-3------------------3-------|
E----------------3-3-----------------------3-3-3-----------|



Добавлено: 12.10.2015
Другие материалы по этой песне:
  • Аккорды и текст

Страница создана 12.10.2015
http://primanota.ru/misc-unsigned-bands/zombies-on-vacation-little-freak-chords.htm
Привет, Гость.
Предлагаем пройти революционный курс по гитаре.
Подарок от PrimaNota.Ru, забирай!