PrimaNota.ru - самый крупный в мире бесплатный архив песенных текстов, аккордов, табулатур и нот


Misc Unsigned Bands - Wildstreak - Armed And Ready - таба

Регистрация Запомнить меня
Войти через:  Facebook Google Twitter Vk Yandex Mail.ru

Misc Unsigned Bands - Wildstreak - Armed And Ready - таба

Печатать
Просмотров: 54
Уроки эстрадного вокала в Санкт-Петербурге
Armed and Ready
By: Wildstreak
Tuning:Eb Ab Db Gb Bb Eb

INTRO

e----------------------|----------------------|-----------------------|
b-------3--3----3--3---|-------3--3--3--------|-----------------------|
g-2---x-2--0--x-2--0---|-2---x-2--0--2--2-----|---------(2)-----------|
d-2---x-0--0--x-0--0---|-2---x-0--0--0--2-----|---------(2)-----------|
a-0--------x-------x---|-0--------x-----0-----|---------(0)-----------|
E----------3-------3---|----------3-----------|-----------------------|
                                             <----------4x------------|

|----------------------|----------------------|-----------------------|
|-------3--3----3--3---|-------3--3--3--------|-----------------------|
|-2---x-2--0--x-2--0---|-2---x-2--0--2--------|-----------------------|
|-2---x-0--0--x-0--0---|-2---x-0--0--0--2-----|---------(2)-----------|
|-0--------x-------x---|-0--------x-----2-----|---------(2)-----------|
|----------3-------3---|----------3-----0-----|---------(0)-----------|
                                             <----------8x------------|

VERSE

e----------|-----------|-----------|-----------|
b----------|-----------|-----------|-----------|
g-7---5----|-7---------|-7-----2---|----5--2---|4x
d-7---5----|-7---7-----|-7--2--2---|-2--5--2---|
a-5---3----|-5---7-----|-5--2--0---|-2--3--0---|
E----------|-----5-----|----0------|-0---------|

CHORUS

e--------------|--------------|--------------|--------------|
b-3--3---------|--------------|-3--3---------|-10-8-7-8~~~\-|
g-0--2--5--2---|-0-----5--7---|-0--2--5--2---|-7--7-7-7~~~\-|
d-0--0--5--2---|-0--2--5--7---|-0--0--5--2---|--------------|
a-x-----3--0---|-x--2--3--5---|-x-----3--0---|--------------|
E-3------------|-3--0---------|-3------------|--------------|

|--------------|--------------|--------------|--------------|
|-3--3---------|--------------|-3--3---------|---------3----|
|-0--2--5--2---|-0-----5--7---|-0--2--5--2---|-----2-2-2-2--|
|-0--0--5--2---|-0--2--5--7---|-0--0--5--2---|-----2-2-0-2--|
|-x-----3--0---|-x--2--3--5---|-x-----3--0---|-----0-0---0--|
|-3------------|-3--0---------|-3------------|-3b5----------|

VERSE

e----------|-----------|-----------|-----------|
b----------|-----------|-----------|-----------|
g-7---5----|-7---------|-7-----2---|----5--2---|2x
d-7---5----|-7---7-----|-7--2--2---|-2--5--2---|
a-5---3----|-5---7-----|-5--2--0---|-2--3--0---|
E----------|-----5-----|----0------|-0---------|

CHORUS

e--------------|--------------|--------------|--------------|
b-3--3---------|--------------|-3--3---------|-10-8-7-8~~~\-|
g-0--2--5--2---|-0-----5--7---|-0--2--5--2---|-7--7-7-7~~~\-|
d-0--0--5--2---|-0--2--5--7---|-0--0--5--2---|--------------|
a-x-----3--0---|-x--2--3--5---|-x-----3--0---|--------------|
E-3------------|-3--0---------|-3------------|--------------|

|--------------|--------------|--------------|--------------|
|-3--3---------|--------------|-3--3---------|---------3----|
|-0--2--5--2---|-0-----5--7---|-0--2--5--2---|-----2-2-2-2--|
|-0--0--5--2---|-0--2--5--7---|-0--0--5--2---|-----2-2-0-2--|
|-x-----3--0---|-x--2--3--5---|-x-----3--0---|-----0-0---0--|
|-3------------|-3--0---------|-3------------|-3b5----------|

lead does this at end of the second part of chorus

Bridge
|---------------------|
|-7-8-8-7-------------|
|-7-7-7-7----5b7------|3x
|---------7m-----7~~~-|
|---------------------|
|---------------------|

|---------------------|
|-7-8-8-7-------------|
|-7-7-7-7----7--------|
|---------7m-7--------|
|------------5--------|
|---------------------|

SOLO
                             m                          m m
e-----------------------------------|----------------------------|
b-8b10-8b10-8b10~~~-----------------|----------------------------|
g-------------------9-7-------------|---------------7b9-9-7-9~~~-|
d-----------------------9-----------|--------7-7-9~-----9-7-9~~~-|
a--------------------------9-7-7~~~-|-5-7*-5---------------------|
E-----------------------------------|----------------------------|

  m m m m
e-----------------------------------|-----------------------------|
b-----------------------------------|-/15b17-pb17-pb17------------|
g-------5-7-9~~~-9b11---------------|------------------14~~-12----|
d-----5---------------11-9----9~~~~\|--------------------------14-|
a-5-7----------------------11-------|-----------------------------|
E-----------------------------------|-----------------------------|

            m  m  ^                       ^
---------------------------------------------------------------------|
------15b16----------------------------------------15----------------|
-14~~-------16-14-16-16~~-----------------12-14b16====pr14-16-14-16~-|
--------------------------16-14-16-14-12~----------------------------|
---------------------------------------------------------------------|
---------------------------------------------------------------------|

     m m m
------------------------------------------------------------------------|
-3b5----------/8b10-------------------------------13b14----15-----------|
-3b5----------------7-5--------5-7-5-7-9=/12b14~~-------14----12-14h16~-|
-----5-3---7~-----------5-7~~~------------------------------------------|
---------3--------------------------------------------------------------|
------------------------------------------------------------------------|

------------------------------------------|
-17-20b22-pb22-pb22-20-17-20b22-----------|
------------------------------------------|
--------------------------------x<~~~~~~~-|
--------------------------------x<~~~~~~~-|
------------------------------------------|

OUTRO

e--------------|--------------|--------------|----------------------|
b-3--3---------|--------------|-3--3---------|-20b22-pb22-17-20b22~~|
g-0--2--5--2---|-0-----5--7---|-0--2--5--2---|----------------------|
d-0--0--5--2---|-0--2--5--7---|-0--0--5--2---|----------------------|
a-x-----3--0---|-x--2--3--5---|-x-----3--0---|----------------------|
E-3------------|-3--0---------|-3------------|----------------------|

|--------------|--------------|--------------|--------------|
|-3--3---------|--------------|-3--3---------|---------3----|
|-0--2--5--2---|-0-----5--7---|-0--2--5--2---|-----2-2-2-2--|
|-0--0--5--2---|-0--2--5--7---|-0--0--5--2---|-----2-2-0-2--|
|-x-----3--0---|-x--2--3--5---|-x-----3--0---|-----0-0---0--|
|-3------------|-3--0---------|-3------------|-3b5----------|

e--------------|--------------|--------------|--------------|
b-3--3---------|--------------|-3--3---------|-10-8-7-8~~~\-|
g-0--2--5--2---|-0-----5--7---|-0--2--5--2---|-7--7-7-7~~~\-|
d-0--0--5--2---|-0--2--5--7---|-0--0--5--2---|--------------|
a-x-----3--0---|-x--2--3--5---|-x-----3--0---|--------------|
E-3------------|-3--0---------|-3------------|--------------|

|--------------|--------------|--------------|--------------|
|-3--3---------|--------------|-3--3---------|--------------|
|-0--2--5--2---|-0-----5--7---|-0--2--5--2---|-----2--------|
|-0--0--5--2---|-0--2--5--7---|-0--0--5--2---|-----2--------|
|-x-----3--0---|-x--2--3--5---|-x-----3--0---|-----0--------|
|-3------------|-3--0---------|-3------------|-3b5----------|

---------------|--------------|--------------|
---3-----------|--------------|--------------|
-2-2-----------|-7~~~--9~~~~~-|------------2-|
-2-0-----------|-----7--------|-x<~~~~~~~~-2-|
-0-------------|--------------|-x<~~~~~~~~-0-|
---------------|--------------|--------------|
Добавлено: 09.11.2013
Другие материалы по этой песне:
  • Аккорды и текст

Страница создана 09.11.2013
http://primanota.ru/misc-unsigned-bands/wildstreak-armed-and-ready-chords.htm
Привет, Гость.
Предлагаем пройти революционный курс по гитаре.
Подарок от PrimaNota.Ru, забирай!