PrimaNota.ru - самый крупный в мире бесплатный архив песенных текстов, аккордов, табулатур и нот


Misc Unsigned Bands - Wingnut Dishwashers Union - Fuck Shit Up Whananana - таба

Регистрация Запомнить меня
Войти через:  Facebook Google Twitter Vk Yandex Mail.ru

Misc Unsigned Bands - Wingnut Dishwashers Union - Fuck Shit Up Whananana - таба

Печатать
Просмотров: 55
----------------------------------------------------------------------------
                 FUCK SHIT UP! - Wingnut Dishwasher's Union
----------------------------------------------------------------------------
Tabbed by: Tim Czarnecki
Email: friedsoup@gmail.com

pm   *
mute x 
    
pat varies his mutes and palm mutes, and will 
some times even only struma chord once live, 
so i tabbed the album version. any questions 
or corrections email me and i'll fix it :)

Tuning: standard

e|-0--0-0--0-0---xxx--xxx-------------------|
B|-0--0-0--0-0---xxx--xxx-------------------|
G|-1--1-2--2-1---xxx--xxx-------------------|
D|-2--2-2--2-2---xxx--xxx-4-4--444-7-7--777-|
A|-2--2-0--0-2---xxx--xxx-4-4--444-7-7--777-|
E|-0--0------0---xxx--xxx-2-2--222-5-5--555-|
  

e|-0--0-0--0-0---xxx--xxx-------------------|
B|-0--0-0--0-0---xxx--xxx-------------------|
G|-1--1-2--2-1---xxx--xxx-------------------|
D|-2--2-2--2-2---xxx--xxx-4-4--444-7-7--777-|
A|-2--2-0--0-2---xxx--xxx-4-4--444-7-7--777-|
E|-0--0------0---xxx--xxx-2-2--222-5-5--555-|
                               *** * *  ***
                                      I don't believe in

e|-0-0--000-0-0--000-------------------------------------0-0--000-0-0--000-|
B|-0-0--000-0-0--000-------------------------------------0-0--000-0-0--000-|
G|-1-1--111-1-1--111-4-4--444-4-4--444-------------------1-1--111-1-1--111-|
D|-2-2--222-2-2--222-4-4--444-4-4--444-7-7--777-7-x--777-2-2--222-2-2--222-|
A|-2-2--222-2-2--222-2-2--222-2-2--222-7-7--777-7-x--777-2-2--222-2-2--222-|
E|-0-0--000-0-0--000-------------------5-5--555-5-x--555-0-0--000-0-0--000-|
   * *  *** * *  *** * *  *** * *  *** * *                          * ***
  cops...                                                           I do...

e|-0-0--000-0-0--000-------------------------------------0-0--000-0-0--000-|
B|-0-0--000-0-0--000-------------------------------------0-0--000-0-0--000-|
G|-1-1--111-1-1--111-4-4--444-4-4--444-------------------1-1--111-1-1--111-|
D|-2-2--222-2-2--222-4-4--444-4-4--444-7-7--777-7-x--777-2-2--222-2-2--222-|
A|-2-2--222-2-2--222-2-2--222-2-2--222-7-7--777-7-x--777-2-2--222-2-2--222-|
E|-0-0--000-0-0--000-------------------5-5--555-5-x--555-0-0--000-0-0--000-|
   * *  *** * *  *** * *  *** * *  *** * *
  freedom...                                                        And...

e|-------------------0-0--000-0-0--000-|
B|-------------------0-0--000-0-0--000-|
G|-------------------1-1--111-1-1--111-|
D|-4-4--444-7-7--777-2-2--222-2-2--222-|
A|-4-4--444-7-7--777-2-2--222-2-2--222-|
E|-2-2--222-5-5--555-0-0--000-0-0--000-|
  quit...

e|-------------------0-0--000-0-0--000-|
B|-------------------0-0--000-0-0--000-|
G|-6-6--666-6-6--666-1-1--111-1-1--111-|
D|-6-6--666-6-6--666-2-2--222-2-2--222-|
A|-4-4--444-4-4--444-2-2--222-2-2--222-|
E|-------------------0-0--000-0-0--000-|
   * *  *** * *  *** * *  *** * * ***
  A punk rock song...

e|-------------------------------------|
B|-------------------------------------|
G|-4-4--444-4-4--444-6-6--666-6-6--666-|
D|-4-4--444-4-4--444-6-6--666-6-6--666-|
A|-2-2--222-2-2--222-4-4--444-4-4--444-|
E|-------------------------------------|
   * *  *** * *  *** * *  *** * *  ***                  bar with your index
  But...                                             and fret with ring & pinky 
                                                        or middle and ring
e|-------------------------------------0-0--000-0-0--000-x-x--xxx-x-x--xxx-|
B|-------------------------------------0-0--000-0-0--000-4-4--444-4-4--444-|
G|-------------------------------------1-1--111-1-1--111-4-4--444-4-4--444-|
D|-4-4--444-4-4--444-7-7--777-7-7--777-2-2--222-2-2--222-x-x--xxx-x-x--xxx-|
A|-4-4--444-4-4--444-7-7--777-7-7--777-2-2--222-2-2--222-x-x--xxx-x-x--xxx-|
E|-2-2--222-2-2--222-5-5--555-5-5--555-0-0--000-0-0--000-x-x--xxx-x-x--xxx-|
  So tonight...
                                         x2
e||--0-0--000-0-0--000--------------------||
B||o-0-0--000-0-0--000-------------------o||
G||--1-1--111-1-1--111--------------------||
D||--2-2--222-2-2--222-4-4--444-7-7--777--||
A||o-2-2--222-2-2--222-4-4--444-7-7--777-o||
E||--0-0--000-0-0--000-2-2--222-5-5--555--||
     *                 *
   Whoa...

e|-0--0-0--0-0--xxx--xxx-------------------|
B|-0--0-0--0-0--xxx--xxx-------------------|
G|-1--1-2--2-1--xxx--xxx-------------------|
D|-2--2-2--2-2--xxx--xxx-4-4--444-7-7--777-|
A|-2--2-0--0-2--xxx--xxx-4-4--444-7-7--777-|
E|-0--0------0--xxx--xxx-2-2--222-5-5--555-|

e|--------------xx-x-xx--------------------|
B|--------------xx-x-xx--------------------|
G|-8-8-x-9-8-8--xx-x-xx--------------------|
D|-9-9-x-9-9-9--xx-x-xx--4-4--444-7-7--777-|
A|-7-7-x-7-7-7--xx-x-xx--4-4--444-7-7--777-|
E|--------------xx-x-xx--2-2--222-5-5--555-|

e|---------------------0--000-0-0--000-|
B|---------------------0--000-0-0--000-|
G|-6-------------------1--111-1-1--111-|
D|-6-------------------2--222-2-2--222-|
A|-4-------------------2--222-2-2--222-|
E|---------------------0--000-0-0--000-|
  A punk rock song...

e|-------------------------------------|
B|-------------------------------------|
G|-4-4--444-4-4--444-6-6--666-6-6--666-|
D|-4-4--444-4-4--444-6-6--666-6-6--666-|
A|-2-2--222-2-2--222-4-4--444-4-4--444-|
E|-------------------------------------|
  But...

e|-------------------------------------0-0--000-0-0--000-x-x--xxx-x-x--xxx-|
B|-------------------------------------0-0--000-0-0--000-4-4--444-4-4--444-|
G|--let-ring---------------------------1-1--111-1-1--111-4-4--444-4-4--444-|
D|-4-----------------7-7--777-7-7--777-2-2--222-2-2--222-x-x--xxx-x-x--xxx-|
A|-4-----------------7-7--777-7-7--777-2-2--222-2-2--222-x-x--xxx-x-x--xxx-|
E|-2-----------------5-5--555-5-5--555-0-0--000-0-0--000-x-x--xxx-x-x--xxx-|
                                       * *  ***
  So tonight... 

e||--0-0--000-0-0--000--------------------||
B||o-0-0--000-0-0--000-------------------o||
G||--1-1--111-1-1--111--------------------||
D||--2-2--222-2-2--222-4-4--444-7-7--777--||
A||o-2-2--222-2-2--222-4-4--444-7-7--777-o||
E||--0-0--000-0-0--000-2-2--222-5-5--555--||
    Whoa...

e|-0--0-0--0-0--xxx--xxx-------------------|
B|-0--0-0--0-0--xxx--xxx-------------------|
G|-1--1-2--2-1--xxx--xxx-------------------|
D|-2--2-2--2-2--xxx--xxx-4-4--444-7-7--777-|
A|-2--2-0--0-2--xxx--xxx-4-4--444-7-7--777-|
E|-0--0------0--xxx--xxx-2-2--222-5-5--555-|
                           Whananana...

e|-0--0-0--0-0--xxx--xxx-------------------|
B|-0--0-0--0-0--xxx--xxx-------------------|
G|-1--1-2--2-1--xxx--xxx-----------let ring|
D|-2--2-2--2-2--xxx--xxx-4-4--444-7--------|
A|-2--2-0--0-2--xxx--xxx-4-4--444-7--------|
E|-0--0------0--xxx--xxx-2-2--222-5--------|
                           Whananana...
e|-0---|
B|-0---|
G|-1---|
D|-2---|
A|-2---|
E|-0---|

Lyrics:
I don't believe in cops, bosses, or politicians
Some call that anarchism, I call it 
Having a fuckin heart that beats
I do believe in freedom and never giving up
Call my methods madness or call them luck
I do what I got to, to be able to breathe
And if you quit your job well you can do a little breathing with me
A punk rock song won't ever change the world
But I can tell you about a couple that changed me
So tonight, we're gonna fuck shit up
Tonight, we're gonna fuck shit up
Tonight... we're gonna fuck shit up
So sing with me now
Whoa-oh-oh-oh, Whoa-oh-oh-oh, Whoa-oh-oh oh-oh-oh-oh
Whoa-oh-oh-oh, Whoa-oh-oh-oh, Whoa-oh-oh oh-oh-oh-oh
Punk rock song won't ever change the world
But I can tell you about a couple that changed me
So tonight, we're gonna fuck shit up
Tonight, we're gonna fuck shit up
Tonight... we're gonna fuck shit up
Oh yeah oh yeah
Whoa-oh-oh-oh, Whoa-oh-oh-oh, Whoa-oh-oh oh-oh-oh-oh
Whoa-oh-oh-oh, Whoa-oh-oh-oh, Whoa-oh-oh oh-oh-oh-oh
Whanananana uh-uh-uh oh
Whanananana uh-uh-uh-uh oh

===============================================================================
Добавлено: 29.12.2013
Другие материалы по этой песне:
  • Аккорды и текст

Страница создана 29.12.2013
http://primanota.ru/misc-unsigned-bands/wingnut-dishwashers-union-fuck-shit-up-whananana-chords.htm
Привет, Гость.
Предлагаем пройти революционный курс по гитаре.
Подарок от PrimaNota.Ru, забирай!