PrimaNota.ru - самый крупный в мире бесплатный архив песенных текстов, аккордов, табулатур и нот


Misc Unsigned Bands - Windamere - You Dont Want To Know Me - таба

Регистрация Запомнить меня
Войти через:  Facebook Google Twitter Vk Yandex Mail.ru

Misc Unsigned Bands - Windamere - You Dont Want To Know Me - таба

Печатать
Просмотров: 64
Уроки эстрадного вокала в Санкт-Петербурге
Tabbed by: action jackson
Email: shibby_dude26@hotmail.com

Tuning: Standard

Intro
e|--------------------|
B|--------------------|
G|--------------------|                       repeat 4 times
D|-----2-------2---2--|
A|---2-------2---2----|
E|-0-----0-0----------|

bridge
e|-----------------------------------------------------------------------------|
B|---------3-----2-------------------------------------------------------------|
G|---------------3----2--------5----4------------------------------------------|
D|---2-----------2----2--------5----4------------------------------------------|
A|---2-----2----------2--------3----2------------------------------------------|
E|---0-----3-------------------------------------------------------------------|

verse 1
e|-------------------------------2-------------------------------------------|
B|-------------------------------3-----2-------------------------------------|
G|-------------------------------2-----2-------------------------------------|
D|----2--------------------------------2-------------------------------------|       
4 times
A|----2----------------------------------------------------------------------|
E|----0----------------------------------------------------------------------|

chorus E G D A

PRE SOLO
e|--------------------------2-------------------------------------------------|
B|--------------------------3-------------------------------------------------|
G|--------------------------2-------------------------------------------------|          
                     repeat hole thing 4 times
D|-----2----------------------------------------------------------------------|      
4 times
A|-----2----------------------------------------------------------------------|
E|-----0----------------------------------------------------------------------|

solo
e|-----10------------------------------------|
B|-----------12----(11)------10--------------|
G|-------------------------------12----(11)--|                                           
4 times
D|-------------------------------------------|
A|-------------------------------------------|
E|-------------------------------------------|

e|---------16-----13---15---------15------12-----14------14---11--13--|
B|---14----------------15----13------------------14---12----------13--|
G|--------------------------------------------------------------------|
D|--------------------------------------------------------------------|
A|--------------------------------------------------------------------|
E|--------------------------------------------------------------------|

e|------12----11---10--|
B|------12----11---10--|
G|---------------------|                       repeat solo 4 times
D|---------------------|
A|---------------------|
E|---------------------|

post solo D A G A
e|---------------------------------------------------------------------------|
B|---------------------------------------------------------------------------|
G|---------------------------------------------------------------------------|
D|---------------------------------------------------------------------------|
A|---------------------------------------------------------------------------|
E|---------------------------------------------------------------------------|
ORDER:
INTRO
BRIDGE
VERSE
BRIDGE
CHORUS
BRIDGE
VERSE
BRIDGE
CHORUS
PRE SOLO
SOLO
POST SOLO
| /  slide up
| \  slide down
| h  hammer-on
| p  pull-off
| ~  vibrato
| +  harmonic
| x  Mute note

thanks for reading my tab this is a tab for my first song in my band windamere. when our
comes out i hope that u can buy our cd to help us make it in the music business. if u
anything to ask me my adress is shibby_dude26@hotmail.com. cya bros
Добавлено: 29.09.2013
Другие материалы по этой песне:
  • Аккорды и текст

Страница создана 29.09.2013
http://primanota.ru/misc-unsigned-bands/windamere-you-dont-want-to-know-me-chords.htm
Привет, Гость.
Предлагаем пройти революционный курс по гитаре.
Подарок от PrimaNota.Ru, забирай!